0
SECTION
2
HEADER
9
$ACADVER
1
AC1012
9
$DWGCODEPAGE
3
ANSI_932
9
$EXTMIN
10
0.000
20
0.000
30
0.0
9
$EXTMAX
10
3360.000
20
2376.000
30
0.0
9
$LIMMIN
10
0.000
20
0.000
9
$LIMMAX
10
3360.000
20
2376.000
9
$DIMSCALE
40
8.000000
9
$LTSCALE
40
8.000
9
$PDMODE
70
0
9
$PDSIZE
40
40.0
9
$HANDSEED
5
61d2d
9
$UNITMODE
70
0
9
$VISRETAIN
70
0
9
$PLINEGEN
70
0
9
$PSLTSCALE
70
1
9
$TREEDEPTH
70
3020
9
$CMLSTYLE
2
STANDARD
9
$CMLJUST
70
0
9
$CMLSCALE
40
1.0
0
ENDSEC
0
SECTION
2
TABLES
0
TABLE
2
VPORT
5
190
100
AcDbSymbolTable
70
2
0
VPORT
5
191
100
AcDbSymbolTableRecord
100
AcDbViewportTableRecord
2
*ACTIVE
70
0
10
0.0
20
0.0
11
1.0
21
1.0
12
1680.000
22
1188.000
13
0.0
23
0.0
14
1.0
24
1.0
15
0.0
25
0.0
16
0.0
26
0.0
36
1.0
17
0.0
27
0.0
37
0.0
40
2434.783
41
2.0
42
50.0
43
0.0
44
0.0
50
0.0
51
0.0
71
0
72
1000
73
1
74
1
75
0
76
0
77
0
78
0
0
ENDTAB
0
TABLE
2
LTYPE
5
1f4
100
AcDbSymbolTable
70
9
0
LTYPE
5
1f5
100
AcDbSymbolTableRecord
100
AcDbLinetypeTableRecord
2
BYBLOCK
70
 64
3

72
 65
73
  0
40
0.0
0
LTYPE
5
1f6
100
AcDbSymbolTableRecord
100
AcDbLinetypeTableRecord
2
BYLAYER
70
 64
3

72
 65
73
  0
40
0.0
0
LTYPE
5
1f7
100
AcDbSymbolTableRecord
100
AcDbLinetypeTableRecord
2
CONTINUOUS
70
64
3
SolidLine
72
65
73
0
40
0.0
0
LTYPE
5
1f8
100
AcDbSymbolTableRecord
100
AcDbLinetypeTableRecord
2
DOT
70
64
3
--  --  --  --  --  --  --  --     
72
65
73
2
40
3.000
49
1.000
74
0
49
-2.000
74
0
0
LTYPE
5
1f9
100
AcDbSymbolTableRecord
100
AcDbLinetypeTableRecord
2
DASHED
70
64
3
----    ----    ----    ----    
72
65
73
2
40
5.000
49
2.000
74
0
49
-3.000
74
0
0
LTYPE
5
1fa
100
AcDbSymbolTableRecord
100
AcDbLinetypeTableRecord
2
DASHED2
70
64
3
------  ------  ------  ------ 
72
65
73
2
40
10.000
49
4.000
74
0
49
-6.000
74
0
0
LTYPE
5
1fb
100
AcDbSymbolTableRecord
100
AcDbLinetypeTableRecord
2
CENTER
70
64
3
----- - ----- - ----- - ----- - 
72
65
73
4
40
10.000
49
6.000
74
0
49
-3.000
74
0
49
1.000
74
0
49
-3.000
74
0
0
LTYPE
5
1fc
100
AcDbSymbolTableRecord
100
AcDbLinetypeTableRecord
2
CENTER2
70
64
3
----------  --  ----------  -- 
72
65
73
4
40
17.000
49
12.000
74
0
49
-5.000
74
0
49
2.000
74
0
49
-5.000
74
0
0
LTYPE
5
1fd
100
AcDbSymbolTableRecord
100
AcDbLinetypeTableRecord
2
PHANTOM
70
64
3
--- - - --- - - --- - - --- - -
72
65
73
6
40
13.000
49
5.000
74
0
49
-3.000
74
0
49
1.000
74
0
49
-3.000
74
0
49
1.000
74
0
49
-3.000
74
0
0
LTYPE
5
1fe
100
AcDbSymbolTableRecord
100
AcDbLinetypeTableRecord
2
PHANTOM2
70
64
3
--------  -  -  --------  -  -
72
65
73
6
40
20.000
49
6.000
74
0
49
-5.000
74
0
49
2.000
74
0
49
-5.000
74
0
49
2.000
74
0
49
-5.000
74
0
0
LTYPE
5
1ff
100
AcDbSymbolTableRecord
100
AcDbLinetypeTableRecord
2
HIDDEN
70
64
3
-   -   -   -   -   -   -   -   
72
65
73
2
40
3.000
49
0.500
74
0
49
-2.500
74
0
0
ENDTAB
0
TABLE
2
STYLE
5
200
100
AcDbSymbolTable
70
1
0
STYLE
5
201
100
AcDbSymbolTableRecord
100
AcDbTextStyleTableRecord
2
STANDARD
70
0
40
0.0
41
1.0
50
0.0
71
0
42
0.0
3
txt.shx
4
extfont.shx
0
STYLE
5
202
100
AcDbSymbolTableRecord
100
AcDbTextStyleTableRecord
2
TATEGAKI
70
4
40
0.0
41
1.0
50
0.0
71
0
42
0.0
3
txt.shx
4
extfont.shx
0
STYLE
5
203
100
AcDbSymbolTableRecord
100
AcDbTextStyleTableRecord
2
 
70
0
40
0.0
41
0.75
50
0.0
71
0
42
0.0
3
txt.shx
4
extfont.shx
0
STYLE
5
204
100
AcDbSymbolTableRecord
100
AcDbTextStyleTableRecord
2
_Gothic_
70
0
40
1.0
41
1.0
50
0.0
71
0
42
10.0
3

4

1001
ACAD
1000
MS Gothic
1071
32817
0
STYLE
5
205
100
AcDbSymbolTableRecord
100
AcDbTextStyleTableRecord
2
_TateGothic_
70
4
40
0.0
41
1.0
50
0.0
71
0
42
0.0
3
@MS Gothic
4

0
ENDTAB
0
TABLE
2
VIEW
5
206
100
AcDbSymbolTable
70
0
0
ENDTAB
0
TABLE
2
UCS
5
207
100
AcDbSymbolTable
70
0
0
ENDTAB
0
TABLE
2
APPID
5
208
100
AcDbSymbolTable
70
1
0
APPID
5
209
100
AcDbSymbolTableRecord
100
AcDbRegAppTableRecord
2
ACAD
70
0
0
ENDTAB
0
TABLE
2
DIMSTYLE
5
403
100
AcDbSymbolTable
70
1
0
DIMSTYLE
105
404
100
AcDbSymbolTableRecord
100
AcDbDimStyleTableRecord
2
JAC_DIM
3

4

5

6

7

70
0
40
8.0
41
16.000
42
0.000
43
0.0
44
0.0
45
0.0
46
0.0
47
0.0
48
0.0
73
0
74
0
77
1
78
8
140
0.000
170
0
171
2
172
0
173
0
174
0
175
0
176
0
177
0
178
0
270
2
271
0
272
0
273
2
274
2
340
201
275
0
280
0
281
0
282
0
283
0
284
0
285
0
286
0
287
3
288
0
0
ENDTAB
0
TABLE
2
BLOCK_RECORD
5
405
100
AcDbSymbolTable
70
0
0
BLOCK_RECORD
5
406
100
AcDbSymbolTableRecord
100
AcDbBlockTableRecord
2
*MODEL_SPACE
0
BLOCK_RECORD
5
407
100
AcDbSymbolTableRecord
100
AcDbBlockTableRecord
2
*PAPER_SPACE
0
BLOCK_RECORD
5
408
100
AcDbSymbolTableRecord
100
AcDbBlockTableRecord
2
_JACCONVERT_
0
ENDTAB
0
TABLE
2
LAYER
5
409
100
AcDbSymbolTable
70
10
0
LAYER
5
40a
100
AcDbSymbolTableRecord
100
AcDbLayerTableRecord
2
0
70
0
62
7
6
CONTINUOUS
0
LAYER
5
40b
100
AcDbSymbolTableRecord
100
AcDbLayerTableRecord
2
0-01-a
70
0
62
7
6
CONTINUOUS
0
LAYER
5
40c
100
AcDbSymbolTableRecord
100
AcDbLayerTableRecord
2
F-0
70
0
62
7
6
CONTINUOUS
0
LAYER
5
40d
100
AcDbSymbolTableRecord
100
AcDbLayerTableRecord
2
F-F
70
0
62
7
6
CONTINUOUS
0
LAYER
5
40e
100
AcDbSymbolTableRecord
100
AcDbLayerTableRecord
2
F-E_J_ADD
70
0
62
-7
6
CONTINUOUS
0
ENDTAB
0
ENDSEC
0
SECTION
2
BLOCKS
0
BLOCK
5
40f
100
AcDbEntity
67
1
8
0
100
AcDbBlockBegin
2
*MODEL_SPACE
70
0
10
0.0
20
0.0
30
0.0
3
*MODEL_SPACE
1

0
ENDBLK
5
410
100
AcDbEntity
8
0
100
AcDbBlockEnd
0
BLOCK
5
411
100
AcDbEntity
67
1
8
0
100
AcDbBlockBegin
2
*PAPER_SPACE
70
0
10
0.0
20
0.0
30
0.0
3
*PAPER_SPACE
1

0
ENDBLK
5
412
100
AcDbEntity
67
1
8
0
100
AcDbBlockEnd
0
BLOCK
5
413
100
AcDbEntity
8
0
100
AcDbBlockBegin
2
_JACCONVERT_
70
2
10
0.0
20
0.0
30
0.0
3
_JACCONVERT_
1
_JACCONVERT_
0
ATTDEF
5
414
100
AcDbEntity
8
0
62
0
100
AcDbText
10
0.0
20
0.0
30
0.0
40
1.0
1
User:33307E081580834E08362083700830930835B08108A0834F0837B0960FA093
100
AcDbAttributeDefinition
3

2
USER
70
8
0
ATTDEF
5
415
100
AcDbEntity
8
0
62
0
100
AcDbText
10
0.0
20
2.0
30
0.0
40
1.0
1
Date:20/10/20 10:32
100
AcDbAttributeDefinition
3

2
REVDATE
70
8
0
ATTDEF
5
416
100
AcDbEntity
8
0
62
0
100
AcDbText
10
0.0
20
4.0
30
0.0
40
1.0
1
File:2020-12　SMI46TS016　承認図.dxf
100
AcDbAttributeDefinition
3

2
FNAME
70
8
0
ATTDEF
5
417
100
AcDbEntity
8
0
62
0
100
AcDbText
10
0.0
20
6.0
30
0.0
40
1.0
1
JacConvert Version3.11 copyright (c) 2001-2016 K.Nakahara
100
AcDbAttributeDefinition
3

2
VER
70
8
0
ENDBLK
5
418
100
AcDbEntity
67
1
8
0
100
AcDbBlockEnd
0
ENDSEC
0
SECTION
2
ENTITIES
0
SOLID
5
419
100
AcDbEntity
8
F-F
62
7
100
AcDbTrace
10
3212.251551976387
20
1247.869772896756
30
0.0
11
3211.996310314194
21
1250.413675785845
31
0.0
 12
3212.251551976387
22
1247.869772896756
32
0.0
13
3212.251551976387
23
1247.869772896756
33
0.0
0
SOLID
5
41a
100
AcDbEntity
8
F-F
62
7
100
AcDbTrace
10
3212.251551976387
20
1247.869772896756
30
0.0
11
3212.251551976387
21
1247.869772896756
31
0.0
 12
3211.996310314194
22
1250.413675785845
32
0.0
13
3211.996310314194
23
1250.413675785845
33
0.0
0
SOLID
5
41b
100
AcDbEntity
8
F-F
62
7
100
AcDbTrace
10
3211.996310314194
20
1250.413675785845
30
0.0
11
3211.240761007222
21
1252.856161294495
31
0.0
 12
3212.251551976387
22
1247.869772896756
32
0.0
13
3212.251551976387
23
1247.869772896756
33
0.0
0
SOLID
5
41c
100
AcDbEntity
8
F-F
62
7
100
AcDbTrace
10
3212.251551976387
20
1247.869772896756
30
0.0
11
3212.251551976387
21
1247.869772896756
31
0.0
 12
3211.240761007222
22
1252.856161294495
32
0.0
13
3211.240761007222
23
1252.856161294495
33
0.0
0
SOLID
5
41d
100
AcDbEntity
8
F-F
62
7
100
AcDbTrace
10
3211.240761007222
20
1252.856161294495
30
0.0
11
3210.015025422068
21
1255.099855233186
31
0.0
 12
3212.251551976387
22
1247.869772896756
32
0.0
13
3212.251551976387
23
1247.869772896756
33
0.0
0
SOLID
5
41e
100
AcDbEntity
8
F-F
62
7
100
AcDbTrace
10
3212.251551976387
20
1247.869772896756
30
0.0
11
3212.251551976387
21
1247.869772896756
31
0.0
 12
3210.015025422068
22
1255.099855233186
32
0.0
13
3210.015025422068
23
1255.099855233186
33
0.0
0
SOLID
5
41f
100
AcDbEntity
8
F-F
62
7
100
AcDbTrace
10
3210.015025422068
20
1255.099855233186
30
0.0
11
3208.367969768478
21
1257.055308604968
31
0.0
 12
3212.251551976387
22
1247.869772896756
32
0.0
13
3212.251551976387
23
1247.869772896756
33
0.0
0
SOLID
5
420
100
AcDbEntity
8
F-F
62
7
100
AcDbTrace
10
3212.251551976387
20
1247.869772896756
30
0.0
11
3212.251551976387
21
1247.869772896756
31
0.0
 12
3208.367969768478
22
1257.055308604968
32
0.0
13
3208.367969768478
23
1257.055308604968
33
0.0
0
SOLID
5
421
100
AcDbEntity
8
F-F
62
7
100
AcDbTrace
10
3208.367969768478
20
1257.055308604968
30
0.0
11
3206.365256957779
21
1258.644563654697
31
0.0
 12
3212.251551976387
22
1247.869772896756
32
0.0
13
3212.251551976387
23
1247.869772896756
33
0.0
0
SOLID
5
422
100
AcDbEntity
8
F-F
62
7
100
AcDbTrace
10
3212.251551976387
20
1247.869772896756
30
0.0
11
3212.251551976387
21
1247.869772896756
31
0.0
 12
3206.365256957779
22
1258.644563654697
32
0.0
13
3206.365256957779
23
1258.644563654697
33
0.0
0
SOLID
5
423
100
AcDbEntity
8
F-F
62
7
100
AcDbTrace
10
3206.365256957779
20
1258.644563654697
30
0.0
11
3204.086728829805
21
1259.804261798726
31
0.0
 12
3212.251551976387
22
1247.869772896756
32
0.0
13
3212.251551976387
23
1247.869772896756
33
0.0
0
SOLID
5
424
100
AcDbEntity
8
F-F
62
7
100
AcDbTrace
10
3212.251551976387
20
1247.869772896756
30
0.0
11
3212.251551976387
21
1247.869772896756
31
0.0
 12
3204.086728829805
22
1259.804261798726
32
0.0
13
3204.086728829805
23
1259.804261798726
33
0.0
0
SOLID
5
425
100
AcDbEntity
8
F-F
62
7
100
AcDbTrace
10
3204.086728829805
20
1259.804261798726
30
0.0
11
3201.623223110708
21
1260.488169531691
31
0.0
 12
3212.251551976387
22
1247.869772896756
32
0.0
13
3212.251551976387
23
1247.869772896756
33
0.0
0
SOLID
5
426
100
AcDbEntity
8
F-F
62
7
100
AcDbTrace
10
3212.251551976387
20
1247.869772896756
30
0.0
11
3212.251551976387
21
1247.869772896756
31
0.0
 12
3201.623223110708
22
1260.488169531691
32
0.0
13
3201.623223110708
23
1260.488169531691
33
0.0
0
SOLID
5
427
100
AcDbEntity
8
F-F
62
7
100
AcDbTrace
10
3201.623223110708
20
1260.488169531691
30
0.0
11
3199.072951999467
21
1260.669021610474
31
0.0
 12
3212.251551976387
22
1247.869772896756
32
0.0
13
3212.251551976387
23
1247.869772896756
33
0.0
0
SOLID
5
428
100
AcDbEntity
8
F-F
62
7
100
AcDbTrace
10
3212.251551976387
20
1247.869772896756
30
0.0
11
3212.251551976387
21
1247.869772896756
31
0.0
 12
3199.072951999467
22
1260.669021610474
32
0.0
13
3199.072951999467
23
1260.669021610474
33
0.0
0
SOLID
5
429
100
AcDbEntity
8
F-F
62
7
100
AcDbTrace
10
3199.072951999467
20
1260.669021610474
30
0.0
11
3196.537586757440
21
1260.339608033406
31
0.0
 12
3212.251551976387
22
1247.869772896756
32
0.0
13
3212.251551976387
23
1247.869772896756
33
0.0
0
SOLID
5
42a
100
AcDbEntity
8
F-F
62
7
100
AcDbTrace
10
3212.251551976387
20
1247.869772896756
30
0.0
11
3212.251551976387
21
1247.869772896756
31
0.0
 12
3196.537586757440
22
1260.339608033406
32
0.0
13
3196.537586757440
23
1260.339608033406
33
0.0
0
SOLID
5
42b
100
AcDbEntity
8
F-F
62
7
100
AcDbTrace
10
3196.537586757440
20
1260.339608033406
30
0.0
11
3194.118204396021
21
1259.513061480280
31
0.0
 12
3212.251551976387
22
1247.869772896756
32
0.0
13
3212.251551976387
23
1247.869772896756
33
0.0
0
SOLID
5
42c
100
AcDbEntity
8
F-F
62
7
100
AcDbTrace
10
3212.251551976387
20
1247.869772896756
30
0.0
11
3212.251551976387
21
1247.869772896756
31
0.0
 12
3194.118204396021
22
1259.513061480280
32
0.0
13
3194.118204396021
23
1259.513061480280
33
0.0
0
SOLID
5
42d
100
AcDbEntity
8
F-F
62
7
100
AcDbTrace
10
3194.118204396021
20
1259.513061480280
30
0.0
11
3191.911258055156
21
1258.222333753851
31
0.0
 12
3212.251551976387
22
1247.869772896756
32
0.0
13
3212.251551976387
23
1247.869772896756
33
0.0
0
SOLID
5
42e
100
AcDbEntity
8
F-F
62
7
100
AcDbTrace
10
3212.251551976387
20
1247.869772896756
30
0.0
11
3212.251551976387
21
1247.869772896756
31
0.0
 12
3191.911258055156
22
1258.222333753851
32
0.0
13
3191.911258055156
23
1258.222333753851
33
0.0
0
SOLID
5
42f
100
AcDbEntity
8
F-F
62
7
100
AcDbTrace
10
3191.911258055156
20
1258.222333753851
30
0.0
11
3190.004731721032
21
1256.518882095445
31
0.0
 12
3212.251551976387
22
1247.869772896756
32
0.0
13
3212.251551976387
23
1247.869772896756
33
0.0
0
SOLID
5
430
100
AcDbEntity
8
F-F
62
7
100
AcDbTrace
10
3212.251551976387
20
1247.869772896756
30
0.0
11
3212.251551976387
21
1247.869772896756
31
0.0
 12
3190.004731721032
22
1256.518882095445
32
0.0
13
3190.004731721032
23
1256.518882095445
33
0.0
0
SOLID
5
431
100
AcDbEntity
8
F-F
62
7
100
AcDbTrace
10
3190.004731721032
20
1256.518882095445
30
0.0
11
3188.474632582202
21
1254.470617747129
31
0.0
 12
3212.251551976387
22
1247.869772896756
32
0.0
13
3212.251551976387
23
1247.869772896756
33
0.0
0
SOLID
5
432
100
AcDbEntity
8
F-F
62
7
100
AcDbTrace
10
3212.251551976387
20
1247.869772896756
30
0.0
11
3212.251551976387
21
1247.869772896756
31
0.0
 12
3188.474632582202
22
1254.470617747129
32
0.0
13
3188.474632582202
23
1254.470617747129
33
0.0
0
SOLID
5
433
100
AcDbEntity
8
F-F
62
7
100
AcDbTrace
10
3188.474632582202
20
1254.470617747129
30
0.0
11
3187.381960862821
21
1252.159198544800
31
0.0
 12
3212.251551976387
22
1247.869772896756
32
0.0
13
3212.251551976387
23
1247.869772896756
33
0.0
0
SOLID
5
434
100
AcDbEntity
8
F-F
62
7
100
AcDbTrace
10
3212.251551976387
20
1247.869772896756
30
0.0
11
3212.251551976387
21
1247.869772896756
31
0.0
 12
3187.381960862821
22
1252.159198544800
32
0.0
13
3187.381960862821
23
1252.159198544800
33
0.0
0
SOLID
5
435
100
AcDbEntity
8
F-F
62
7
100
AcDbTrace
10
3187.381960862821
20
1252.159198544800
30
0.0
11
3186.770277936218
21
1249.676773477948
31
0.0
 12
3212.251551976387
22
1247.869772896756
32
0.0
13
3212.251551976387
23
1247.869772896756
33
0.0
0
SOLID
5
436
100
AcDbEntity
8
F-F
62
7
100
AcDbTrace
10
3212.251551976387
20
1247.869772896756
30
0.0
11
3212.251551976387
21
1247.869772896756
31
0.0
 12
3186.770277936218
22
1249.676773477948
32
0.0
13
3186.770277936218
23
1249.676773477948
33
0.0
0
SOLID
5
437
100
AcDbEntity
8
F-F
62
7
100
AcDbTrace
10
3186.770277936218
20
1249.676773477948
30
0.0
11
3186.642134771348
21
1247.869772896756
31
0.0
 12
3212.251551976387
22
1247.869772896756
32
0.0
13
3212.251551976387
23
1247.869772896756
33
0.0
0
SOLID
5
438
100
AcDbEntity
8
F-F
62
7
100
AcDbTrace
10
3212.251551976387
20
1247.869772896756
30
0.0
11
3212.251551976387
21
1247.869772896756
31
0.0
 12
3186.642134771348
22
1247.869772896756
32
0.0
13
3186.642134771348
23
1247.869772896756
33
0.0
0
SOLID
5
439
100
AcDbEntity
8
F-F
62
250
100
AcDbTrace
10
3185.332505700547
20
1276.118264433629
30
0.0
11
3190.732505700547
21
1276.118264433629
31
0.0
 12
3190.732505700547
22
1290.293264433629
32
0.0
13
3190.732505700547
23
1290.293264433629
33
0.0
0
SOLID
5
43a
100
AcDbEntity
8
F-F
62
250
100
AcDbTrace
10
3190.732505700547
20
1290.293264433629
30
0.0
11
3190.732505700547
21
1290.293264433629
31
0.0
 12
3190.732505700547
22
1276.118264433629
32
0.0
13
3190.732505700547
23
1276.118264433629
33
0.0
0
SOLID
5
43b
100
AcDbEntity
8
F-F
62
250
100
AcDbTrace
10
3185.332505700547
20
1276.118264433629
30
0.0
11
3190.732505700547
21
1290.293264433629
31
0.0
 12
3190.732505700547
22
1295.693264433629
32
0.0
13
3190.732505700547
23
1295.693264433629
33
0.0
0
SOLID
5
43c
100
AcDbEntity
8
F-F
62
250
100
AcDbTrace
10
3190.732505700547
20
1295.693264433629
30
0.0
11
3190.732505700547
21
1295.693264433629
31
0.0
 12
3190.732505700547
22
1290.293264433629
32
0.0
13
3190.732505700547
23
1290.293264433629
33
0.0
0
SOLID
5
43d
100
AcDbEntity
8
F-F
62
250
100
AcDbTrace
10
3190.732505700547
20
1295.693264433629
30
0.0
11
3159.886371517147
21
1295.693264433629
31
0.0
 12
3159.886371517147
22
1290.293264433629
32
0.0
13
3159.886371517147
23
1290.293264433629
33
0.0
0
SOLID
5
43e
100
AcDbEntity
8
F-F
62
250
100
AcDbTrace
10
3159.886371517147
20
1290.293264433629
30
0.0
11
3159.886371517147
21
1290.293264433629
31
0.0
 12
3159.886371517147
22
1295.693264433629
32
0.0
13
3159.886371517147
23
1295.693264433629
33
0.0
0
SOLID
5
43f
100
AcDbEntity
8
F-F
62
250
100
AcDbTrace
10
3190.732505700547
20
1295.693264433629
30
0.0
11
3159.886371517147
21
1290.293264433629
31
0.0
 12
3185.332505700547
22
1290.293264433629
32
0.0
13
3185.332505700547
23
1290.293264433629
33
0.0
0
SOLID
5
440
100
AcDbEntity
8
F-F
62
250
100
AcDbTrace
10
3185.332505700547
20
1290.293264433629
30
0.0
11
3185.332505700547
21
1290.293264433629
31
0.0
 12
3159.886371517147
22
1290.293264433629
32
0.0
13
3159.886371517147
23
1290.293264433629
33
0.0
0
SOLID
5
441
100
AcDbEntity
8
F-F
62
250
100
AcDbTrace
10
3190.732505700547
20
1295.693264433629
30
0.0
11
3185.332505700547
21
1290.293264433629
31
0.0
 12
3185.332505700547
22
1276.118264433629
32
0.0
13
3185.332505700547
23
1276.118264433629
33
0.0
0
SOLID
5
442
100
AcDbEntity
8
F-F
62
250
100
AcDbTrace
10
3185.332505700547
20
1276.118264433629
30
0.0
11
3185.332505700547
21
1276.118264433629
31
0.0
 12
3185.332505700547
22
1290.293264433629
32
0.0
13
3185.332505700547
23
1290.293264433629
33
0.0
0
SOLID
5
443
100
AcDbEntity
8
F-F
62
250
100
AcDbTrace
10
3208.161181049348
20
1295.693264433629
30
0.0
11
3239.007315232748
21
1295.693264433629
31
0.0
 12
3208.161181049348
22
1290.293264433629
32
0.0
13
3208.161181049348
23
1290.293264433629
33
0.0
0
SOLID
5
444
100
AcDbEntity
8
F-F
62
250
100
AcDbTrace
10
3239.007315232748
20
1290.293264433629
30
0.0
11
3208.161181049348
21
1290.293264433629
31
0.0
 12
3239.007315232748
22
1295.693264433629
32
0.0
13
3239.007315232748
23
1295.693264433629
33
0.0
0
SOLID
5
445
100
AcDbEntity
8
F-F
62
250
100
AcDbTrace
10
3216.571551976388
20
1247.869772896756
30
0.0
11
3216.230197930468
21
1251.271927294879
31
0.0
 12
3199.446843373868
22
1247.869772896756
32
0.0
13
3199.446843373868
23
1247.869772896756
33
0.0
0
SOLID
5
446
100
AcDbEntity
8
F-F
62
250
100
AcDbTrace
10
3199.446843373868
20
1247.869772896756
30
0.0
11
3199.446843373868
21
1247.869772896756
31
0.0
 12
3216.230197930468
22
1251.271927294879
32
0.0
13
3216.230197930468
23
1251.271927294879
33
0.0
0
SOLID
5
447
100
AcDbEntity
8
F-F
62
250
100
AcDbTrace
10
3216.230197930468
20
1251.271927294879
30
0.0
11
3215.219744501314
21
1254.538448533268
31
0.0
 12
3199.446843373868
22
1247.869772896756
32
0.0
13
3199.446843373868
23
1247.869772896756
33
0.0
0
SOLID
5
448
100
AcDbEntity
8
F-F
62
250
100
AcDbTrace
10
3199.446843373868
20
1247.869772896756
30
0.0
11
3199.446843373868
21
1247.869772896756
31
0.0
 12
3215.219744501314
22
1254.538448533268
32
0.0
13
3215.219744501314
23
1254.538448533268
33
0.0
0
SOLID
5
449
100
AcDbEntity
8
F-F
62
250
100
AcDbTrace
10
3215.219744501314
20
1254.538448533268
30
0.0
11
3213.580475278478
21
1257.539110718253
31
0.0
 12
3199.446843373868
22
1247.869772896756
32
0.0
13
3199.446843373868
23
1247.869772896756
33
0.0
0
SOLID
5
44a
100
AcDbEntity
8
F-F
62
250
100
AcDbTrace
10
3199.446843373868
20
1247.869772896756
30
0.0
11
3199.446843373868
21
1247.869772896756
31
0.0
 12
3213.580475278478
22
1257.539110718253
32
0.0
13
3213.580475278478
23
1257.539110718253
33
0.0
0
SOLID
5
44b
100
AcDbEntity
8
F-F
62
250
100
AcDbTrace
10
3213.580475278478
20
1257.539110718253
30
0.0
11
3211.377742752859
21
1260.154286917654
31
0.0
 12
3199.446843373868
22
1247.869772896756
32
0.0
13
3199.446843373868
23
1247.869772896756
33
0.0
0
SOLID
5
44c
100
AcDbEntity
8
F-F
62
250
100
AcDbTrace
10
3199.446843373868
20
1247.869772896756
30
0.0
11
3199.446843373868
21
1247.869772896756
31
0.0
 12
3211.377742752859
22
1260.154286917654
32
0.0
13
3211.377742752859
23
1260.154286917654
33
0.0
0
SOLID
5
44d
100
AcDbEntity
8
F-F
62
250
100
AcDbTrace
10
3211.377742752859
20
1260.154286917654
30
0.0
11
3208.699362919129
21
1262.279718309067
31
0.0
 12
3199.446843373868
22
1247.869772896756
32
0.0
13
3199.446843373868
23
1247.869772896756
33
0.0
0
SOLID
5
44e
100
AcDbEntity
8
F-F
62
250
100
AcDbTrace
10
3199.446843373868
20
1247.869772896756
30
0.0
11
3199.446843373868
21
1247.869772896756
31
0.0
 12
3208.699362919129
22
1262.279718309067
32
0.0
13
3208.699362919129
23
1262.279718309067
33
0.0
0
SOLID
5
44f
100
AcDbEntity
8
F-F
62
250
100
AcDbTrace
10
3208.699362919129
20
1262.279718309067
30
0.0
11
3205.652114329144
21
1263.830670650104
31
0.0
 12
3199.446843373868
22
1247.869772896756
32
0.0
13
3199.446843373868
23
1247.869772896756
33
0.0
0
SOLID
5
450
100
AcDbEntity
8
F-F
62
250
100
AcDbTrace
10
3199.446843373868
20
1247.869772896756
30
0.0
11
3199.446843373868
21
1247.869772896756
31
0.0
 12
3205.652114329144
22
1263.830670650104
32
0.0
13
3205.652114329144
23
1263.830670650104
33
0.0
0
SOLID
5
451
100
AcDbEntity
8
F-F
62
250
100
AcDbTrace
10
3205.652114329144
20
1263.830670650104
30
0.0
11
3202.357481168037
21
1264.745312365241
31
0.0
 12
3199.446843373868
22
1247.869772896756
32
0.0
13
3199.446843373868
23
1247.869772896756
33
0.0
0
SOLID
5
452
100
AcDbEntity
8
F-F
62
250
100
AcDbTrace
10
3199.446843373868
20
1247.869772896756
30
0.0
11
3199.446843373868
21
1247.869772896756
31
0.0
 12
3202.357481168037
22
1264.745312365241
32
0.0
13
3202.357481168037
23
1264.745312365241
33
0.0
0
SOLID
5
453
100
AcDbEntity
8
F-F
62
250
100
AcDbTrace
10
3202.357481168037
20
1264.745312365241
30
0.0
11
3198.946810063125
21
1264.987179575613
31
0.0
 12
3199.446843373868
22
1247.869772896756
32
0.0
13
3199.446843373868
23
1247.869772896756
33
0.0
0
SOLID
5
454
100
AcDbEntity
8
F-F
62
250
100
AcDbTrace
10
3199.446843373868
20
1247.869772896756
30
0.0
11
3199.446843373868
21
1247.869772896756
31
0.0
 12
3198.946810063125
22
1264.987179575613
32
0.0
13
3198.946810063125
23
1264.987179575613
33
0.0
0
SOLID
5
455
100
AcDbEntity
8
F-F
62
250
100
AcDbTrace
10
3198.946810063125
20
1264.987179575613
30
0.0
11
3195.556073708366
21
1264.546629798800
31
0.0
 12
3199.446843373868
22
1247.869772896756
32
0.0
13
3199.446843373868
23
1247.869772896756
33
0.0
0
SOLID
5
456
100
AcDbEntity
8
F-F
62
250
100
AcDbTrace
10
3199.446843373868
20
1247.869772896756
30
0.0
11
3199.446843373868
21
1247.869772896756
31
0.0
 12
3195.556073708366
22
1264.546629798800
32
0.0
13
3195.556073708366
23
1264.546629798800
33
0.0
0
SOLID
5
457
100
AcDbEntity
8
F-F
62
250
100
AcDbTrace
10
3195.556073708366
20
1264.546629798800
30
0.0
11
3192.320450062137
21
1263.441226364167
31
0.0
 12
3199.446843373868
22
1247.869772896756
32
0.0
13
3199.446843373868
23
1247.869772896756
33
0.0
0
SOLID
5
458
100
AcDbEntity
8
F-F
62
250
100
AcDbTrace
10
3199.446843373868
20
1247.869772896756
30
0.0
11
3199.446843373868
21
1247.869772896756
31
0.0
 12
3192.320450062137
22
1263.441226364167
32
0.0
13
3192.320450062137
23
1263.441226364167
33
0.0
0
SOLID
5
459
100
AcDbEntity
8
F-F
62
250
100
AcDbTrace
10
3192.320450062137
20
1263.441226364167
30
0.0
11
3189.368933228612
21
1261.715038218352
31
0.0
 12
3199.446843373868
22
1247.869772896756
32
0.0
13
3199.446843373868
23
1247.869772896756
33
0.0
0
SOLID
5
45a
100
AcDbEntity
8
F-F
62
250
100
AcDbTrace
10
3199.446843373868
20
1247.869772896756
30
0.0
11
3199.446843373868
21
1247.869772896756
31
0.0
 12
3189.368933228612
22
1261.715038218352
32
0.0
13
3189.368933228612
23
1261.715038218352
33
0.0
0
SOLID
5
45b
100
AcDbEntity
8
F-F
62
250
100
AcDbTrace
10
3189.368933228612
20
1261.715038218352
30
0.0
11
3186.819190869894
21
1259.436883035426
31
0.0
 12
3199.446843373868
22
1247.869772896756
32
0.0
13
3199.446843373868
23
1247.869772896756
33
0.0
0
SOLID
5
45c
100
AcDbEntity
8
F-F
62
250
100
AcDbTrace
10
3199.446843373868
20
1247.869772896756
30
0.0
11
3199.446843373868
21
1247.869772896756
31
0.0
 12
3186.819190869894
22
1259.436883035426
32
0.0
13
3186.819190869894
23
1259.436883035426
33
0.0
0
SOLID
5
45d
100
AcDbEntity
8
F-F
62
250
100
AcDbTrace
10
3186.819190869894
20
1259.436883035426
30
0.0
11
3184.772873167648
21
1256.697583673398
31
0.0
 12
3199.446843373868
22
1247.869772896756
32
0.0
13
3199.446843373868
23
1247.869772896756
33
0.0
0
SOLID
5
45e
100
AcDbEntity
8
F-F
62
250
100
AcDbTrace
10
3199.446843373868
20
1247.869772896756
30
0.0
11
3199.446843373868
21
1247.869772896756
31
0.0
 12
3184.772873167648
22
1256.697583673398
32
0.0
13
3184.772873167648
23
1256.697583673398
33
0.0
0
SOLID
5
45f
100
AcDbEntity
8
F-F
62
250
100
AcDbTrace
10
3184.772873167648
20
1256.697583673398
30
0.0
11
3183.311560351132
21
1253.606347353473
31
0.0
 12
3199.446843373868
22
1247.869772896756
32
0.0
13
3199.446843373868
23
1247.869772896756
33
0.0
0
SOLID
5
460
100
AcDbEntity
8
F-F
62
250
100
AcDbTrace
10
3199.446843373868
20
1247.869772896756
30
0.0
11
3199.446843373868
21
1247.869772896756
31
0.0
 12
3183.311560351132
22
1253.606347353473
32
0.0
13
3183.311560351132
23
1253.606347353473
33
0.0
0
SOLID
5
461
100
AcDbEntity
8
F-F
62
250
100
AcDbTrace
10
3183.311560351132
20
1253.606347353473
30
0.0
11
3182.493510350904
21
1250.286411912767
31
0.0
 12
3199.446843373868
22
1247.869772896756
32
0.0
13
3199.446843373868
23
1247.869772896756
33
0.0
0
SOLID
5
462
100
AcDbEntity
8
F-F
62
250
100
AcDbTrace
10
3199.446843373868
20
1247.869772896756
30
0.0
11
3199.446843373868
21
1247.869772896756
31
0.0
 12
3182.493510350904
22
1250.286411912767
32
0.0
13
3182.493510350904
23
1250.286411912767
33
0.0
0
SOLID
5
463
100
AcDbEntity
8
F-F
62
250
100
AcDbTrace
10
3182.493510350904
20
1250.286411912767
30
0.0
11
3182.322134771348
21
1247.869772896756
31
0.0
 12
3199.446843373868
22
1247.869772896756
32
0.0
13
3199.446843373868
23
1247.869772896756
33
0.0
0
SOLID
5
464
100
AcDbEntity
8
F-F
62
250
100
AcDbTrace
10
3199.446843373868
20
1247.869772896756
30
0.0
11
3199.446843373868
21
1247.869772896756
31
0.0
 12
3182.322134771348
22
1247.869772896756
32
0.0
13
3182.322134771348
23
1247.869772896756
33
0.0
0
TEXT
5
465
100
AcDbEntity
8
F-F
62
3
100
AcDbText
10
2465.253
20
1750.035
30
0.0
40
40.392
41
0.999
50
0.000
1
型式
72
1
11
2519.333
21
1770.667
31
0.0
100
AcDbText
73
2
0
TEXT
5
466
100
AcDbEntity
8
F-F
62
3
100
AcDbText
10
2465.253
20
1230.035
30
0.0
40
40.392
41
0.999
50
0.000
1
形状
72
1
11
2519.333
21
1250.667
31
0.0
100
AcDbText
73
2
0
TEXT
5
467
100
AcDbEntity
8
F-F
62
3
100
AcDbText
10
2381.253
20
1310.035
30
0.0
40
40.392
41
0.999
50
0.000
1
コンセント
72
1
11
2519.333
21
1330.667
31
0.0
100
AcDbText
73
2
0
TEXT
5
468
100
AcDbEntity
8
F-F
62
3
100
AcDbText
10
2409.253
20
1030.035
30
0.0
40
40.392
41
0.999
50
0.000
1
作動水圧
72
1
11
2519.333
21
1050.667
31
0.0
100
AcDbText
73
2
0
TEXT
5
469
100
AcDbEntity
8
F-F
62
3
100
AcDbText
10
2409.253
20
1110.035
30
0.0
40
40.392
41
0.999
50
0.000
1
消費電力
72
1
11
2519.333
21
1130.667
31
0.0
100
AcDbText
73
2
0
TEXT
5
46a
100
AcDbEntity
8
F-F
62
3
100
AcDbText
10
2437.253
20
1430.035
30
0.0
40
40.392
41
0.999
50
0.000
1
周波数
72
1
11
2519.333
21
1450.667
31
0.0
100
AcDbText
73
2
0
LINE
5
46b
100
AcDbEntity
8
F-F
6
CONTINUOUS
62
7
100
AcDbLine
10
2375.333333333333
20
1726.666688661317
30
0.0
11
3280.000000000000
21
1726.666688661317
31
0.0
0
LINE
5
46c
100
AcDbEntity
8
F-F
6
CONTINUOUS
62
7
100
AcDbLine
10
2375.333333333333
20
1486.666688661317
30
0.0
11
3280.000000000000
21
1486.666688661317
31
0.0
0
LINE
5
46d
100
AcDbEntity
8
F-F
6
CONTINUOUS
62
7
100
AcDbLine
10
2375.333333333333
20
1406.666688661317
30
0.0
11
3280.000000000000
21
1406.666688661317
31
0.0
0
LINE
5
46e
100
AcDbEntity
8
F-F
6
CONTINUOUS
62
7
100
AcDbLine
10
2375.333333333333
20
1166.666688661317
30
0.0
11
3280.000000000000
21
1166.666688661317
31
0.0
0
LINE
5
46f
100
AcDbEntity
8
F-F
6
CONTINUOUS
62
7
100
AcDbLine
10
2375.333333333333
20
1086.666688661317
30
0.0
11
3280.000000000000
21
1086.666688661317
31
0.0
0
LINE
5
470
100
AcDbEntity
8
F-F
6
CONTINUOUS
62
7
100
AcDbLine
10
2375.333333333333
20
1006.666688661317
30
0.0
11
3280.000000000000
21
1006.666688661317
31
0.0
0
LINE
5
471
100
AcDbEntity
8
F-F
6
CONTINUOUS
62
7
100
AcDbLine
10
2375.333333333333
20
1646.666688661317
30
0.0
11
3280.000000000000
21
1646.666688661317
31
0.0
0
TEXT
5
472
100
AcDbEntity
8
F-F
62
3
100
AcDbText
10
2465.253
20
1550.035
30
0.0
40
40.392
41
0.999
50
0.000
1
電源
72
1
11
2519.333
21
1570.667
31
0.0
100
AcDbText
73
2
0
TEXT
5
473
100
AcDbEntity
8
F-F
62
3
100
AcDbText
10
2409.253
20
1670.035
30
0.0
40
40.392
41
0.999
50
0.000
1
設置方法
72
1
11
2519.333
21
1690.667
31
0.0
100
AcDbText
73
2
0
TEXT
5
474
100
AcDbEntity
8
F-F
62
3
100
AcDbText
10
2833.587
20
1670.035
30
0.0
40
40.392
41
0.999
50
0.000
1
ビルトイン
72
1
11
2971.667
21
1690.667
31
0.0
100
AcDbText
73
2
0
TEXT
5
475
100
AcDbEntity
8
F-F
62
3
100
AcDbText
10
2873.587
20
1430.035
30
0.0
40
40.392
41
0.623
50
0.000
1
50/60Hz
72
1
11
2969.667
21
1450.667
31
0.0
100
AcDbText
73
2
0
TEXT
5
476
100
AcDbEntity
8
F-F
62
3
100
AcDbText
10
2901.587
20
1110.035
30
0.0
40
40.392
41
0.665
50
0.000
1
1700W
72
1
11
2969.667
21
1130.667
31
0.0
100
AcDbText
73
2
0
MTEXT
5
477
100
AcDbEntity
8
F-F
62
3
100
AcDbMText
10
2971.587
20
1053.547
30
0.0
40
38.148
41
0.000
71
5
72
1
1
\W1.134;{\W0.817;0.05}～{\W0.817;1.0Mpa}
7
STANDARD
11
1.00000
21
0.00000
31
0.0
0
TEXT
5
478
100
AcDbEntity
8
F-F
62
3
100
AcDbText
10
2887.587
20
1750.035
30
0.0
40
40.392
41
0.602
50
0.000
1
SD6P9B
72
1
11
2969.667
21
1770.667
31
0.0
100
AcDbText
73
2
0
TEXT
5
479
100
AcDbEntity
8
F-F
62
7
100
AcDbText
10
2668.389
20
1348.693
30
0.0
40
26.928
1
露出型
41
0.963
50
0.000
100
AcDbText
0
MTEXT
5
47a
100
AcDbEntity
8
F-F
62
7
100
AcDbMText
10
2668.389
20
1299.880
30
0.0
40
25.432
41
0.000
71
7
72
1
1
\W1.093;{\W0.787; }パナソニック　{\W0.787;WKS294}
7
STANDARD
11
1.00000
21
0.00000
31
0.0
0
TEXT
5
47b
100
AcDbEntity
8
F-F
62
7
100
AcDbText
10
2668.389
20
1234.258
30
0.0
40
26.928
1
埋込型
41
0.963
50
0.000
100
AcDbText
0
MTEXT
5
47c
100
AcDbEntity
8
F-F
62
7
100
AcDbMText
10
2668.389
20
1185.445
30
0.0
40
25.432
41
0.000
71
7
72
1
1
\W1.093;{\W0.787; }パナソニック　{\W0.787;WTF19324WK}
7
STANDARD
11
1.00000
21
0.00000
31
0.0
0
TEXT
5
47d
100
AcDbEntity
8
F-F
62
7
100
AcDbText
10
2668.389
20
1581.505
30
0.0
40
26.928
1
ブレーカー付き
41
0.963
50
0.000
100
AcDbText
0
TEXT
5
47e
100
AcDbEntity
8
F-F
62
3
100
AcDbText
10
2334.409
20
1356.786
30
0.0
40
36.353
1
仕　　様
41
0.999
50
0.000
  7
TATEGAKI
100
AcDbText
0
MTEXT
5
47f
100
AcDbEntity
8
F-F
62
7
100
AcDbMText
10
2668.389
20
1532.692
30
0.0
40
25.432
41
0.000
71
7
72
1
1
\W1.093;単相{\W0.787;200V}・{\W0.787;15A}専用回路（アース付）
7
STANDARD
11
1.00000
21
0.00000
31
0.0
0
ARC
5
480
100
AcDbEntity
8
F-F
6
CONTINUOUS
62
7
100
AcDbCircle
10
3199.446843373868
20
1247.869772896756
30
0.0
40
12.804708602520
100
AcDbArc
50
0.000000000000
51
180.000000000000
0
ARC
5
481
100
AcDbEntity
8
F-F
6
CONTINUOUS
62
2
100
AcDbCircle
10
3199.446843373868
20
1247.869772896756
30
0.0
40
12.804708602520
100
AcDbArc
50
0.000000000000
51
180.000000000000
0
POLYLINE
5
482
100
AcDbEntity
8
F-F
6
CONTINUOUS
62
  2
100
AcDb2dPolyline
66
1
10
0.0
20
0.0
30
0.0
70
0
0
VERTEX
5
483
100
AcDbEntity
8
F-F
6
CONTINUOUS
62
  2
100
AcDbVertex
100
AcDb2dVertex
10
3208.161181049348
20
1295.693264433629
30
0.0
0
VERTEX
5
484
100
AcDbEntity
8
F-F
6
CONTINUOUS
62
  2
100
AcDbVertex
100
AcDb2dVertex
10
3239.007315232748
20
1295.693264433629
30
0.0
0
VERTEX
5
485
100
AcDbEntity
8
F-F
6
CONTINUOUS
62
  2
100
AcDbVertex
100
AcDb2dVertex
10
3239.007315232748
20
1290.293264433629
30
0.0
0
VERTEX
5
486
100
AcDbEntity
8
F-F
6
CONTINUOUS
62
  2
100
AcDbVertex
100
AcDb2dVertex
10
3208.161181049348
20
1290.293264433629
30
0.0
0
VERTEX
5
487
100
AcDbEntity
8
F-F
6
CONTINUOUS
62
  2
100
AcDbVertex
100
AcDb2dVertex
10
3208.161181049348
20
1295.693264433629
30
0.0
0
SEQEND
5
488
100
AcDbEntity
8
F-F
0
POLYLINE
5
489
100
AcDbEntity
8
F-F
6
CONTINUOUS
62
  2
100
AcDb2dPolyline
66
1
10
0.0
20
0.0
30
0.0
70
0
0
VERTEX
5
48a
100
AcDbEntity
8
F-F
6
CONTINUOUS
62
  2
100
AcDbVertex
100
AcDb2dVertex
10
3159.886371517147
20
1295.693264433629
30
0.0
0
VERTEX
5
48b
100
AcDbEntity
8
F-F
6
CONTINUOUS
62
  2
100
AcDbVertex
100
AcDb2dVertex
10
3190.732505700547
20
1295.693264433629
30
0.0
0
VERTEX
5
48c
100
AcDbEntity
8
F-F
6
CONTINUOUS
62
  2
100
AcDbVertex
100
AcDb2dVertex
10
3190.732505700547
20
1290.293264433629
30
0.0
0
SEQEND
5
48d
100
AcDbEntity
8
F-F
0
LINE
5
48e
100
AcDbEntity
8
F-F
6
CONTINUOUS
62
2
100
AcDbLine
10
3159.886371517147
20
1290.293264433629
30
0.0
11
3159.886371517147
21
1295.693264433629
31
0.0
0
LINE
5
48f
100
AcDbEntity
8
F-F
6
CONTINUOUS
62
2
100
AcDbLine
10
3185.332505700547
20
1276.118264433629
30
0.0
11
3185.332505700547
21
1290.293264433629
31
0.0
0
LINE
5
490
100
AcDbEntity
8
F-F
6
CONTINUOUS
62
2
100
AcDbLine
10
3190.732505700547
20
1276.118264433629
30
0.0
11
3185.332505700547
21
1276.118264433629
31
0.0
0
LINE
5
491
100
AcDbEntity
8
F-F
6
CONTINUOUS
62
2
100
AcDbLine
10
3190.732505700547
20
1290.293264433629
30
0.0
11
3190.732505700547
21
1276.118264433629
31
0.0
0
LINE
5
492
100
AcDbEntity
8
F-F
6
CONTINUOUS
62
2
100
AcDbLine
10
3185.332505700547
20
1290.293264433629
30
0.0
11
3159.886371517147
21
1290.293264433629
31
0.0
0
LINE
5
493
100
AcDbEntity
8
F-F
6
CONTINUOUS
62
2
100
AcDbLine
10
3182.322134771348
20
1247.869772896756
30
0.0
11
3186.642134771348
21
1247.869772896756
31
0.0
0
LINE
5
494
100
AcDbEntity
8
F-F
6
CONTINUOUS
62
2
100
AcDbLine
10
3212.251551976387
20
1247.869772896756
30
0.0
11
3216.571551976387
21
1247.869772896756
31
0.0
0
ARC
5
495
100
AcDbEntity
8
F-F
6
CONTINUOUS
62
2
100
AcDbCircle
10
3199.446843373868
20
1247.869772896756
30
0.0
40
17.124708602520
100
AcDbArc
50
0.000000000000
51
180.000000000000
0
POLYLINE
5
496
100
AcDbEntity
8
F-F
6
CONTINUOUS
62
  2
100
AcDb2dPolyline
66
1
10
0.0
20
0.0
30
0.0
70
0
0
VERTEX
5
497
100
AcDbEntity
8
F-F
6
CONTINUOUS
62
  2
100
AcDbVertex
100
AcDb2dVertex
10
3145.446843374947
20
1329.615442406227
30
0.0
0
VERTEX
5
498
100
AcDbEntity
8
F-F
6
CONTINUOUS
62
  2
100
AcDbVertex
100
AcDb2dVertex
10
3145.446843374947
20
1221.615442406227
30
0.0
0
VERTEX
5
499
100
AcDbEntity
8
F-F
6
CONTINUOUS
62
  2
100
AcDbVertex
100
AcDb2dVertex
10
3253.446843374948
20
1221.615442406227
30
0.0
0
VERTEX
5
49a
100
AcDbEntity
8
F-F
6
CONTINUOUS
62
  2
100
AcDbVertex
100
AcDb2dVertex
10
3253.446843374948
20
1329.615442406227
30
0.0
0
VERTEX
5
49b
100
AcDbEntity
8
F-F
6
CONTINUOUS
62
  2
100
AcDbVertex
100
AcDb2dVertex
10
3145.446843374947
20
1329.615442406227
30
0.0
0
SEQEND
5
49c
100
AcDbEntity
8
F-F
0
LINE
5
49d
100
AcDbEntity
8
F-F
6
CONTINUOUS
62
7
100
AcDbLine
10
2655.333333333333
20
366.666688661317
30
0.0
11
2655.333333333333
21
1806.666688661317
31
0.0
0
POLYLINE
5
49e
100
AcDbEntity
8
F-F
6
CONTINUOUS
62
  2
100
AcDb2dPolyline
66
1
10
0.0
20
0.0
30
0.0
70
0
0
VERTEX
5
49f
100
AcDbEntity
8
F-F
6
CONTINUOUS
62
  2
100
AcDbVertex
100
AcDb2dVertex
10
2295.333333333333
20
366.666688661317
30
0.0
0
VERTEX
5
4a0
100
AcDbEntity
8
F-F
6
CONTINUOUS
62
  2
100
AcDbVertex
100
AcDb2dVertex
10
2295.333333333333
20
1806.666688661317
30
0.0
0
VERTEX
5
4a1
100
AcDbEntity
8
F-F
6
CONTINUOUS
62
  2
100
AcDbVertex
100
AcDb2dVertex
10
3280.000000000000
20
1806.666688661317
30
0.0
0
SEQEND
5
4a2
100
AcDbEntity
8
F-F
0
LINE
5
4a3
100
AcDbEntity
8
F-F
6
CONTINUOUS
62
2
100
AcDbLine
10
3280.000000000000
20
366.666688661317
30
0.0
11
3280.000000000000
21
1806.666688661317
31
0.0
0
LINE
5
4a4
100
AcDbEntity
8
F-F
6
CONTINUOUS
62
2
100
AcDbLine
10
2375.333333333333
20
366.666688661317
30
0.0
11
2375.333333333333
21
1806.666688661317
31
0.0
0
LINE
5
4a5
100
AcDbEntity
8
F-F
6
CONTINUOUS
62
2
100
AcDbLine
10
3304.000000000000
20
82.666688661317
30
0.0
11
3304.000000000000
21
2293.333311338683
31
0.0
0
POLYLINE
5
4a6
100
AcDbEntity
8
F-F
6
CONTINUOUS
62
  2
100
AcDb2dPolyline
66
1
10
0.0
20
0.0
30
0.0
70
0
0
VERTEX
5
4a7
100
AcDbEntity
8
F-F
6
CONTINUOUS
62
  2
100
AcDbVertex
100
AcDb2dVertex
10
56.000000000000
20
82.666688661317
30
0.0
0
VERTEX
5
4a8
100
AcDbEntity
8
F-F
6
CONTINUOUS
62
  2
100
AcDbVertex
100
AcDb2dVertex
10
56.000000000000
20
2293.333311338683
30
0.0
0
VERTEX
5
4a9
100
AcDbEntity
8
F-F
6
CONTINUOUS
62
  2
100
AcDbVertex
100
AcDb2dVertex
10
3304.000000000000
20
2293.333311338683
30
0.0
0
SEQEND
5
4aa
100
AcDbEntity
8
F-F
0
LINE
5
4ab
100
AcDbEntity
8
F-F
6
CONTINUOUS
62
2
100
AcDbLine
10
1680.000000000000
20
2293.333311338683
30
0.0
11
1680.000000000000
21
2413.333311338683
31
0.0
0
LINE
5
4ac
100
AcDbEntity
8
F-F
6
CONTINUOUS
62
2
100
AcDbLine
10
56.000000000000
20
82.666688661317
30
0.0
11
3304.000000000000
21
82.666688661317
31
0.0
0
LINE
5
4ad
100
AcDbEntity
8
F-F
6
CONTINUOUS
62
2
100
AcDbLine
10
1680.000000000000
20
82.666688661317
30
0.0
11
1680.000000000000
21
-37.333311338683
31
0.0
0
LINE
5
4ae
100
AcDbEntity
8
F-F
6
CONTINUOUS
62
2
100
AcDbLine
10
-64.000000000000
20
1188.000000000000
30
0.0
11
56.000000000000
21
1188.000000000000
31
0.0
0
TEXT
5
4af
100
AcDbEntity
8
F-F
62
3
100
AcDbText
10
2465.253
20
390.035
30
0.0
40
40.392
41
0.999
50
0.000
1
重量
72
1
11
2519.333
21
410.667
31
0.0
100
AcDbText
73
2
0
TEXT
5
4b0
100
AcDbEntity
8
F-F
62
3
100
AcDbText
10
2915.587
20
390.035
30
0.0
40
40.392
41
0.607
50
0.000
1
48kg
72
0
11
2913.667
21
410.667
31
0.0
100
AcDbText
73
2
0
LINE
5
4b1
100
AcDbEntity
8
F-F
6
CONTINUOUS
62
7
100
AcDbLine
10
2375.333333333333
20
526.666688661317
30
0.0
11
3280.000000000000
21
526.666688661317
31
0.0
0
LINE
5
4b2
100
AcDbEntity
8
F-F
6
CONTINUOUS
62
7
100
AcDbLine
10
2375.333333333333
20
446.666688661317
30
0.0
11
3280.000000000000
21
446.666688661317
31
0.0
0
TEXT
5
4b3
100
AcDbEntity
8
F-F
62
3
100
AcDbText
10
2409.253
20
470.035
30
0.0
40
40.392
41
0.999
50
0.000
1
面材重量
72
1
11
2519.333
21
490.667
31
0.0
100
AcDbText
73
2
0
MTEXT
5
4b4
100
AcDbEntity
8
F-F
62
7
100
AcDbMText
10
2969.267
20
489.067
30
0.0
40
31.790
41
0.000
71
5
72
1
1
\W0.972;{\W0.700;2.5kg}～{\W0.700;8.5kg}
7
STANDARD
11
1.00000
21
0.00000
31
0.0
0
LINE
5
4b5
100
AcDbEntity
8
F-F
6
CONTINUOUS
62
2
100
AcDbLine
10
3424.000000000000
20
1268.000000000000
30
0.0
11
3304.000000000000
21
1268.000000000000
31
0.0
0
TEXT
5
4b6
100
AcDbEntity
8
F-F
62
3
100
AcDbText
10
2409.253
20
630.035
30
0.0
40
40.392
41
0.999
50
0.000
1
開口寸法
72
1
11
2519.333
21
650.667
31
0.0
100
AcDbText
73
2
0
LINE
5
4b7
100
AcDbEntity
8
F-F
6
CONTINUOUS
62
7
100
AcDbLine
10
2375.333333333333
20
766.666688661317
30
0.0
11
3280.000000000000
21
766.666688661317
31
0.0
0
LINE
5
4b8
100
AcDbEntity
8
F-F
6
CONTINUOUS
62
7
100
AcDbLine
10
2375.333333333333
20
686.666688661317
30
0.0
11
3280.000000000000
21
686.666688661317
31
0.0
0
MTEXT
5
4b9
100
AcDbEntity
8
F-F
62
7
100
AcDbMText
10
2969.267
20
649.067
30
0.0
40
31.790
41
0.000
71
5
72
1
1
\W0.972;{\W0.700;W600mm D573mm}以上{\W0.700; H815}～{\W0.700;875mm}
7
STANDARD
11
1.00000
21
0.00000
31
0.0
0
MTEXT
5
4ba
100
AcDbEntity
8
F-F
62
7
100
AcDbMText
10
2968.883
20
728.491
30
0.0
40
24.160
41
0.000
71
5
72
1
1
\W0.972;{\W0.700;W598mm D573mm H813}～{\W0.700;873mm }寸法公差±{\W0.700;1mm}
7
STANDARD
11
1.00000
21
0.00000
31
0.0
0
LINE
5
4bb
100
AcDbEntity
8
F-F
6
CONTINUOUS
62
7
100
AcDbLine
10
2375.333333333333
20
606.666688661317
30
0.0
11
3280.000000000000
21
606.666688661317
31
0.0
0
LINE
5
4bc
100
AcDbEntity
8
F-F
6
CONTINUOUS
62
2
100
AcDbLine
10
2295.333333333333
20
366.666688661317
30
0.0
11
3280.000000000000
21
366.666688661317
31
0.0
0
TEXT
5
4bd
100
AcDbEntity
8
F-F
62
3
100
AcDbText
10
2409.253
20
710.035
30
0.0
40
40.392
41
0.999
50
0.000
1
製品寸法
72
1
11
2519.333
21
730.667
31
0.0
100
AcDbText
73
2
0
TEXT
5
4be
100
AcDbEntity
8
F-F
62
7
100
AcDbText
10
2410.613
20
555.579
30
0.0
40
26.928
41
0.963
50
0.000
1
アジャスター
72
1
11
2517.333
21
568.667
31
0.0
100
AcDbText
73
2
0
MTEXT
5
4bf
100
AcDbEntity
8
F-F
62
7
100
AcDbMText
10
2968.883
20
568.491
30
0.0
40
24.160
41
0.000
71
5
72
1
1
\W0.972;{\W0.700;3}点（前方{\W0.700;2}点／後方{\W0.700;1}点）{\W0.700; }調整高さ{\W0.700;0}～{\W0.700;60mm}
7
STANDARD
11
1.00000
21
0.00000
31
0.0
0
LINE
5
4c0
100
AcDbEntity
8
0-01-a
6
CONTINUOUS
62
7
100
AcDbLine
10
291.519257713070
20
2141.181257616944
30
0.0
11
291.519257713070
21
2052.791286771463
31
0.0
0
TEXT
5
4c1
100
AcDbEntity
8
0-01-a
62
7
100
AcDbText
10
640.617
20
808.873
30
0.0
40
26.928
41
0.597
50
0.000
1
594
72
1
11
667.617
21
805.881
31
0.0
100
AcDbText
73
1
0
LINE
5
4c2
100
AcDbEntity
8
0-01-a
6
CONTINUOUS
62
4
100
AcDbLine
10
219.101102180636
20
1067.908267209318
30
0.0
11
219.101102180636
21
254.908267161317
31
0.0
0
LINE
5
4c3
100
AcDbEntity
8
0-01-a
6
CONTINUOUS
62
7
100
AcDbLine
10
291.519257713070
20
1219.370211766378
30
0.0
11
291.519257713070
21
1130.980240920897
31
0.0
0
LINE
5
4c4
100
AcDbEntity
8
0-01-a
6
CONTINUOUS
62
7
100
AcDbLine
10
366.336832116252
20
2062.000979996139
30
0.0
11
366.336832116252
21
1991.719313057286
31
0.0
0
LINE
5
4c5
100
AcDbEntity
8
0-01-a
6
CONTINUOUS
62
2
100
AcDbLine
10
964.336832116252
20
1991.719313057286
30
0.0
11
366.336832116252
21
1991.719313057286
31
0.0
0
LINE
5
4c6
100
AcDbEntity
8
0-01-a
6
CONTINUOUS
62
7
100
AcDbLine
10
964.336832116252
20
2062.000979996139
30
0.0
11
964.336832116252
21
1991.719313057286
31
0.0
0
LINE
5
4c7
100
AcDbEntity
8
0-01-a
6
CONTINUOUS
62
7
100
AcDbLine
10
219.101102180636
20
1991.719313057286
30
0.0
11
366.336832116252
21
1991.719313057286
31
0.0
0
POLYLINE
5
4c8
100
AcDbEntity
8
0-01-a
6
CONTINUOUS
62
  2
100
AcDb2dPolyline
66
1
10
0.0
20
0.0
30
0.0
70
0
0
VERTEX
5
4c9
100
AcDbEntity
8
0-01-a
6
CONTINUOUS
62
  2
100
AcDbVertex
100
AcDb2dVertex
10
366.336832116252
20
1991.719313057286
30
0.0
0
VERTEX
5
4ca
100
AcDbEntity
8
0-01-a
6
CONTINUOUS
62
  2
100
AcDbVertex
100
AcDb2dVertex
10
366.336832116252
20
1476.719313057286
30
0.0
0
VERTEX
5
4cb
100
AcDbEntity
8
0-01-a
6
CONTINUOUS
62
  2
100
AcDbVertex
100
AcDb2dVertex
10
964.336832116252
20
1476.719313057286
30
0.0
0
VERTEX
5
4cc
100
AcDbEntity
8
0-01-a
6
CONTINUOUS
62
  2
100
AcDbVertex
100
AcDb2dVertex
10
964.336832116252
20
1991.719313057286
30
0.0
0
SEQEND
5
4cd
100
AcDbEntity
8
0-01-a
0
LINE
5
4ce
100
AcDbEntity
8
0-01-a
6
CONTINUOUS
62
7
100
AcDbLine
10
284.930513411949
20
1476.719313057286
30
0.0
11
366.336832116252
21
1476.719313057286
31
0.0
0
LINE
5
4cf
100
AcDbEntity
8
0-01-a
6
CONTINUOUS
62
2
100
AcDbLine
10
381.336832116250
20
1991.719313057286
30
0.0
11
381.336832116250
21
1476.719313057286
31
0.0
0
LINE
5
4d0
100
AcDbEntity
8
0-01-a
6
CONTINUOUS
62
2
100
AcDbLine
10
949.336832116252
20
1476.719313057286
30
0.0
11
949.336832116252
21
1991.719313057286
31
0.0
0
LINE
5
4d1
100
AcDbEntity
8
0-01-a
6
CONTINUOUS
62
2
100
AcDbLine
10
381.336832116250
20
1516.719313057286
30
0.0
11
949.336832116252
21
1516.719313057286
31
0.0
0
LINE
5
4d2
100
AcDbEntity
8
0-01-a
6
CONTINUOUS
62
2
100
AcDbLine
10
381.336832116250
20
1518.219313057286
30
0.0
11
949.336832116252
21
1518.219313057286
31
0.0
0
LINE
5
4d3
100
AcDbEntity
8
0-01-a
6
CONTINUOUS
62
2
100
AcDbLine
10
381.336832116250
20
1478.219313057286
30
0.0
11
949.336832116252
21
1478.219313057286
31
0.0
0
LINE
5
4d4
100
AcDbEntity
8
0-01-a
6
CONTINUOUS
62
7
100
AcDbLine
10
283.430513411949
20
417.908267211317
30
0.0
11
366.336832116252
21
417.908267211317
31
0.0
0
LINE
5
4d5
100
AcDbEntity
8
0-01-a
6
CONTINUOUS
62
7
100
AcDbLine
10
1042.847299128034
20
948.908267209317
30
0.0
11
962.586832116252
21
948.908267209317
31
0.0
0
LINE
5
4d6
100
AcDbEntity
8
0-01-a
6
CONTINUOUS
62
4
100
AcDbLine
10
283.430513411949
20
1062.908267209317
30
0.0
11
283.430513411949
21
417.908267211317
31
0.0
0
POLYLINE
5
4d7
100
AcDbEntity
  8
0-01-a
6
CONTINUOUS
62
4
100
AcDb2dPolyline
66
1
10
0
20
0
70
1
40
3.200
41
3.200
0
VERTEX
5
4d8
100
AcDbEntity
  8
0-01-a
6
CONTINUOUS
62
4
100
AcDbVertex
100
AcDb2dVertex
10
281.831
20
1062.908
30
0.0
42
1.000
0
VERTEX
5
4d9
100
AcDbEntity
  8
0-01-a
6
CONTINUOUS
62
4
100
AcDbVertex
100
AcDb2dVertex
10
285.031
20
1062.908
30
0.0
42
1.000
0
SEQEND
5
4da
100
AcDbEntity
  8
0-01-a
0
POLYLINE
5
4db
100
AcDbEntity
  8
0-01-a
6
CONTINUOUS
62
4
100
AcDb2dPolyline
66
1
10
0
20
0
70
1
40
3.200
41
3.200
0
VERTEX
5
4dc
100
AcDbEntity
  8
0-01-a
6
CONTINUOUS
62
4
100
AcDbVertex
100
AcDb2dVertex
10
281.831
20
417.908
30
0.0
42
1.000
0
VERTEX
5
4dd
100
AcDbEntity
  8
0-01-a
6
CONTINUOUS
62
4
100
AcDbVertex
100
AcDb2dVertex
10
285.031
20
417.908
30
0.0
42
1.000
0
SEQEND
5
4de
100
AcDbEntity
  8
0-01-a
0
TEXT
5
4df
100
AcDbEntity
8
0-01-a
62
7
100
AcDbText
10
274.519
20
715.688
30
0.0
40
26.928
41
0.581
50
90.000
1
645
72
1
11
277.511
21
742.688
31
0.0
100
AcDbText
73
1
0
POLYLINE
5
4e0
100
AcDbEntity
  8
0-01-a
6
CONTINUOUS
62
4
100
AcDb2dPolyline
66
1
10
0
20
0
70
1
40
3.200
41
3.200
0
VERTEX
5
4e1
100
AcDbEntity
  8
0-01-a
6
CONTINUOUS
62
4
100
AcDbVertex
100
AcDb2dVertex
10
217.501
20
1067.908
30
0.0
42
1.000
0
VERTEX
5
4e2
100
AcDbEntity
  8
0-01-a
6
CONTINUOUS
62
4
100
AcDbVertex
100
AcDb2dVertex
10
220.701
20
1067.908
30
0.0
42
1.000
0
SEQEND
5
4e3
100
AcDbEntity
  8
0-01-a
0
POLYLINE
5
4e4
100
AcDbEntity
  8
0-01-a
6
CONTINUOUS
62
4
100
AcDb2dPolyline
66
1
10
0
20
0
70
1
40
3.200
41
3.200
0
VERTEX
5
4e5
100
AcDbEntity
  8
0-01-a
6
CONTINUOUS
62
4
100
AcDbVertex
100
AcDb2dVertex
10
217.501
20
254.908
30
0.0
42
1.000
0
VERTEX
5
4e6
100
AcDbEntity
  8
0-01-a
6
CONTINUOUS
62
4
100
AcDbVertex
100
AcDb2dVertex
10
220.701
20
254.908
30
0.0
42
1.000
0
SEQEND
5
4e7
100
AcDbEntity
  8
0-01-a
0
LINE
5
4e8
100
AcDbEntity
8
0-01-a
6
CONTINUOUS
62
4
100
AcDbLine
10
219.101102180636
20
1067.908267209318
30
0.0
11
283.430513411949
21
1067.908267209318
31
0.0
0
TEXT
5
4e9
100
AcDbEntity
8
0-01-a
62
7
100
AcDbText
10
210.189
20
636.688
30
0.0
40
26.928
41
0.658
50
90.000
1
813
72
1
11
213.181
21
663.688
31
0.0
100
AcDbText
73
1
0
LINE
5
4ea
100
AcDbEntity
8
0-01-a
6
CONTINUOUS
62
4
100
AcDbLine
10
219.101102180636
20
1418.719313057286
30
0.0
11
219.101102180636
21
1991.719313057286
31
0.0
0
POLYLINE
5
4eb
100
AcDbEntity
  8
0-01-a
6
CONTINUOUS
62
4
100
AcDb2dPolyline
66
1
10
0
20
0
70
1
40
3.200
41
3.200
0
VERTEX
5
4ec
100
AcDbEntity
  8
0-01-a
6
CONTINUOUS
62
4
100
AcDbVertex
100
AcDb2dVertex
10
217.501
20
1418.719
30
0.0
42
1.000
0
VERTEX
5
4ed
100
AcDbEntity
  8
0-01-a
6
CONTINUOUS
62
4
100
AcDbVertex
100
AcDb2dVertex
10
220.701
20
1418.719
30
0.0
42
1.000
0
SEQEND
5
4ee
100
AcDbEntity
  8
0-01-a
0
POLYLINE
5
4ef
100
AcDbEntity
  8
0-01-a
6
CONTINUOUS
62
4
100
AcDb2dPolyline
66
1
10
0
20
0
70
1
40
3.200
41
3.200
0
VERTEX
5
4f0
100
AcDbEntity
  8
0-01-a
6
CONTINUOUS
62
4
100
AcDbVertex
100
AcDb2dVertex
10
217.501
20
1991.719
30
0.0
42
1.000
0
VERTEX
5
4f1
100
AcDbEntity
  8
0-01-a
6
CONTINUOUS
62
4
100
AcDbVertex
100
AcDb2dVertex
10
220.701
20
1991.719
30
0.0
42
1.000
0
SEQEND
5
4f2
100
AcDbEntity
  8
0-01-a
0
TEXT
5
4f3
100
AcDbEntity
8
0-01-a
62
7
100
AcDbText
10
210.189
20
1680.499
30
0.0
40
26.928
41
0.584
50
90.000
1
573
72
1
11
213.181
21
1707.499
31
0.0
100
AcDbText
73
1
0
LINE
5
4f4
100
AcDbEntity
8
0-01-a
6
CONTINUOUS
62
4
100
AcDbLine
10
284.930513411949
20
1476.719313057286
30
0.0
11
284.930513411949
21
1471.719313057286
31
0.0
0
POLYLINE
5
4f5
100
AcDbEntity
  8
0-01-a
6
CONTINUOUS
62
4
100
AcDb2dPolyline
66
1
10
0
20
0
70
1
40
3.200
41
3.200
0
VERTEX
5
4f6
100
AcDbEntity
  8
0-01-a
6
CONTINUOUS
62
4
100
AcDbVertex
100
AcDb2dVertex
10
283.331
20
1476.719
30
0.0
42
1.000
0
VERTEX
5
4f7
100
AcDbEntity
  8
0-01-a
6
CONTINUOUS
62
4
100
AcDbVertex
100
AcDb2dVertex
10
286.531
20
1476.719
30
0.0
42
1.000
0
SEQEND
5
4f8
100
AcDbEntity
  8
0-01-a
0
POLYLINE
5
4f9
100
AcDbEntity
  8
0-01-a
6
CONTINUOUS
62
4
100
AcDb2dPolyline
66
1
10
0
20
0
70
1
40
3.200
41
3.200
0
VERTEX
5
4fa
100
AcDbEntity
  8
0-01-a
6
CONTINUOUS
62
4
100
AcDbVertex
100
AcDb2dVertex
10
283.331
20
1471.719
30
0.0
42
1.000
0
VERTEX
5
4fb
100
AcDbEntity
  8
0-01-a
6
CONTINUOUS
62
4
100
AcDbVertex
100
AcDb2dVertex
10
286.531
20
1471.719
30
0.0
42
1.000
0
SEQEND
5
4fc
100
AcDbEntity
  8
0-01-a
0
TEXT
5
4fd
100
AcDbEntity
8
0-01-a
62
7
100
AcDbText
10
276.019
20
1467.499
30
0.0
40
26.928
41
0.564
50
90.000
1
5
72
1
11
279.011
21
1476.499
31
0.0
100
AcDbText
73
1
0
LINE
5
4fe
100
AcDbEntity
8
0-01-a
6
CONTINUOUS
62
4
100
AcDbLine
10
284.930513411949
20
1471.719313057286
30
0.0
11
284.930513411949
21
1418.719313057286
31
0.0
0
POLYLINE
5
4ff
100
AcDbEntity
  8
0-01-a
6
CONTINUOUS
62
4
100
AcDb2dPolyline
66
1
10
0
20
0
70
1
40
3.200
41
3.200
0
VERTEX
5
500
100
AcDbEntity
  8
0-01-a
6
CONTINUOUS
62
4
100
AcDbVertex
100
AcDb2dVertex
10
283.331
20
1418.719
30
0.0
42
1.000
0
VERTEX
5
501
100
AcDbEntity
  8
0-01-a
6
CONTINUOUS
62
4
100
AcDbVertex
100
AcDb2dVertex
10
286.531
20
1418.719
30
0.0
42
1.000
0
SEQEND
5
502
100
AcDbEntity
  8
0-01-a
0
TEXT
5
503
100
AcDbEntity
8
0-01-a
62
7
100
AcDbText
10
276.019
20
1429.499
30
0.0
40
26.928
41
0.572
50
90.000
1
53
72
1
11
279.011
21
1447.499
31
0.0
100
AcDbText
73
1
0
LINE
5
504
100
AcDbEntity
8
0-01-a
6
CONTINUOUS
62
4
100
AcDbLine
10
1042.847299128034
20
948.908267209317
30
0.0
11
1042.847299128034
21
1062.908267209317
31
0.0
0
POLYLINE
5
505
100
AcDbEntity
  8
0-01-a
6
CONTINUOUS
62
4
100
AcDb2dPolyline
66
1
10
0
20
0
70
1
40
3.200
41
3.200
0
VERTEX
5
506
100
AcDbEntity
  8
0-01-a
6
CONTINUOUS
62
4
100
AcDbVertex
100
AcDb2dVertex
10
1041.247
20
948.908
30
0.0
42
1.000
0
VERTEX
5
507
100
AcDbEntity
  8
0-01-a
6
CONTINUOUS
62
4
100
AcDbVertex
100
AcDb2dVertex
10
1044.447
20
948.908
30
0.0
42
1.000
0
SEQEND
5
508
100
AcDbEntity
  8
0-01-a
0
POLYLINE
5
509
100
AcDbEntity
  8
0-01-a
6
CONTINUOUS
62
4
100
AcDb2dPolyline
66
1
10
0
20
0
70
1
40
3.200
41
3.200
0
VERTEX
5
50a
100
AcDbEntity
  8
0-01-a
6
CONTINUOUS
62
4
100
AcDbVertex
100
AcDb2dVertex
10
1041.247
20
1062.908
30
0.0
42
1.000
0
VERTEX
5
50b
100
AcDbEntity
  8
0-01-a
6
CONTINUOUS
62
4
100
AcDbVertex
100
AcDb2dVertex
10
1044.447
20
1062.908
30
0.0
42
1.000
0
SEQEND
5
50c
100
AcDbEntity
  8
0-01-a
0
TEXT
5
50d
100
AcDbEntity
8
0-01-a
62
7
100
AcDbText
10
1033.935
20
981.188
30
0.0
40
26.928
41
0.813
50
90.000
1
114
72
1
11
1036.927
21
1008.188
31
0.0
100
AcDbText
73
1
0
POLYLINE
5
50e
100
AcDbEntity
  8
0-01-a
6
CONTINUOUS
62
4
100
AcDb2dPolyline
66
1
10
0
20
0
70
1
40
3.200
41
3.200
0
VERTEX
5
50f
100
AcDbEntity
  8
0-01-a
6
CONTINUOUS
62
4
100
AcDbVertex
100
AcDb2dVertex
10
1041.247
20
1067.908
30
0.0
42
1.000
0
VERTEX
5
510
100
AcDbEntity
  8
0-01-a
6
CONTINUOUS
62
4
100
AcDbVertex
100
AcDb2dVertex
10
1044.447
20
1067.908
30
0.0
42
1.000
0
SEQEND
5
511
100
AcDbEntity
  8
0-01-a
0
LINE
5
512
100
AcDbEntity
8
0-01-a
6
CONTINUOUS
62
4
100
AcDbLine
10
366.336832116252
20
2062.000979996139
30
0.0
11
964.336832116252
21
2062.000979996139
31
0.0
0
POLYLINE
5
513
100
AcDbEntity
  8
0-01-a
6
CONTINUOUS
62
4
100
AcDb2dPolyline
66
1
10
0
20
0
70
1
40
3.200
41
3.200
0
VERTEX
5
514
100
AcDbEntity
  8
0-01-a
6
CONTINUOUS
62
4
100
AcDbVertex
100
AcDb2dVertex
10
364.737
20
2062.001
30
0.0
42
1.000
0
VERTEX
5
515
100
AcDbEntity
  8
0-01-a
6
CONTINUOUS
62
4
100
AcDbVertex
100
AcDb2dVertex
10
367.937
20
2062.001
30
0.0
42
1.000
0
SEQEND
5
516
100
AcDbEntity
  8
0-01-a
0
POLYLINE
5
517
100
AcDbEntity
  8
0-01-a
6
CONTINUOUS
62
4
100
AcDb2dPolyline
66
1
10
0
20
0
70
1
40
3.200
41
3.200
0
VERTEX
5
518
100
AcDbEntity
  8
0-01-a
6
CONTINUOUS
62
4
100
AcDbVertex
100
AcDb2dVertex
10
962.737
20
2062.001
30
0.0
42
1.000
0
VERTEX
5
519
100
AcDbEntity
  8
0-01-a
6
CONTINUOUS
62
4
100
AcDbVertex
100
AcDb2dVertex
10
965.937
20
2062.001
30
0.0
42
1.000
0
SEQEND
5
51a
100
AcDbEntity
  8
0-01-a
0
TEXT
5
51b
100
AcDbEntity
8
0-01-a
62
7
100
AcDbText
10
640.617
20
2070.913
30
0.0
40
26.928
41
0.576
50
0.000
1
598
72
1
11
667.617
21
2067.921
31
0.0
100
AcDbText
73
1
0
TEXT
5
51c
100
AcDbEntity
8
0-01-a
62
7
100
AcDbText
10
470.617
20
1304.626
30
0.0
40
26.928
41
0.963
50
0.000
1
（コントロールパネル）
72
1
11
668.617
21
1301.634
31
0.0
100
AcDbText
73
1
0
LINE
5
51d
100
AcDbEntity
8
0-01-a
6
CONTINUOUS
62
2
100
AcDbLine
10
366.336832116252
20
349.203477871317
30
0.0
11
964.336832116252
21
349.203477871317
31
0.0
0
LINE
5
51e
100
AcDbEntity
8
0-01-a
6
CONTINUOUS
62
2
100
AcDbLine
10
964.336832116252
20
415.908267211317
30
0.0
11
366.336832116252
21
415.908267211317
31
0.0
0
LINE
5
51f
100
AcDbEntity
8
0-01-a
6
CONTINUOUS
62
7
100
AcDbLine
10
725.804657400113
20
967.483481084096
30
0.0
11
753.399295855071
21
967.483481084096
31
0.0
0
LINE
5
520
100
AcDbEntity
8
0-01-a
6
CONTINUOUS
62
7
100
AcDbLine
10
577.274368377434
20
1049.696213024322
30
0.0
11
577.274368377434
21
964.719495999232
31
0.0
0
CIRCLE
5
521
100
AcDbEntity
8
0-01-a
6
CONTINUOUS
62
7
100
AcDbCircle
10
516.034164487845
20
1025.643213047015
30
0.0
40
9.993169130644
0
CIRCLE
5
522
100
AcDbEntity
8
0-01-a
6
CONTINUOUS
62
7
100
AcDbCircle
10
557.493940764519
20
1042.100528820962
30
0.0
40
6.400550265722
0
CIRCLE
5
523
100
AcDbEntity
8
0-01-a
6
CONTINUOUS
62
7
100
AcDbCircle
10
557.493940764519
20
1025.326726205209
30
0.0
40
6.400550265722
0
CIRCLE
5
524
100
AcDbEntity
8
0-01-a
6
CONTINUOUS
62
7
100
AcDbCircle
10
557.493940764519
20
1008.552923589456
30
0.0
40
6.400550265722
0
CIRCLE
5
525
100
AcDbEntity
8
0-01-a
6
CONTINUOUS
62
7
100
AcDbCircle
10
814.639499732434
20
1025.643213047015
30
0.0
40
9.993169130644
0
CIRCLE
5
526
100
AcDbEntity
8
0-01-a
6
CONTINUOUS
62
7
100
AcDbCircle
10
773.179723455762
20
1042.100528820962
30
0.0
40
6.400550265722
0
CIRCLE
5
527
100
AcDbEntity
8
0-01-a
6
CONTINUOUS
62
7
100
AcDbCircle
10
773.179723455762
20
1025.326726205209
30
0.0
40
6.400550265722
0
CIRCLE
5
528
100
AcDbEntity
8
0-01-a
6
CONTINUOUS
62
7
100
AcDbCircle
10
773.179723455762
20
1008.552923589456
30
0.0
40
6.400550265722
0
POLYLINE
5
529
100
AcDbEntity
8
0-01-a
6
CONTINUOUS
62
  7
100
AcDb2dPolyline
66
1
10
0.0
20
0.0
30
0.0
70
0
0
VERTEX
5
52a
100
AcDbEntity
8
0-01-a
6
CONTINUOUS
62
  7
100
AcDbVertex
100
AcDb2dVertex
10
577.274368377434
20
964.719495999232
30
0.0
0
VERTEX
5
52b
100
AcDbEntity
8
0-01-a
6
CONTINUOUS
62
  7
100
AcDbVertex
100
AcDb2dVertex
10
753.399295855071
20
964.719495999232
30
0.0
0
VERTEX
5
52c
100
AcDbEntity
8
0-01-a
6
CONTINUOUS
62
  7
100
AcDbVertex
100
AcDb2dVertex
10
753.399295855071
20
1049.696213024322
30
0.0
0
SEQEND
5
52d
100
AcDbEntity
8
0-01-a
0
LINE
5
52e
100
AcDbEntity
8
0-01-a
6
CONTINUOUS
62
7
100
AcDbLine
10
577.274368377434
20
1049.696213024322
30
0.0
11
753.399295855071
21
1049.696213024322
31
0.0
0
LINE
5
52f
100
AcDbEntity
8
0-01-a
6
CONTINUOUS
62
7
100
AcDbLine
10
577.274368377434
20
992.526632752898
30
0.0
11
753.399295855071
21
992.526632752898
31
0.0
0
ARC
5
530
100
AcDbEntity
8
0-01-a
6
CONTINUOUS
62
7
100
AcDbCircle
10
602.330239493923
20
992.183064287375
30
0.0
40
24.829715059833
100
AcDbArc
50
201.637555685442
51
275.868585487606
0
LINE
5
531
100
AcDbEntity
8
0-01-a
6
CONTINUOUS
62
7
100
AcDbLine
10
605.156859139764
20
1049.696213024322
30
0.0
11
605.156859139764
21
992.526632752898
31
0.0
0
LINE
5
532
100
AcDbEntity
8
0-01-a
6
CONTINUOUS
62
7
100
AcDbLine
10
577.274368377434
20
1031.386695676371
30
0.0
11
605.156859139764
21
1031.386695676371
31
0.0
0
LINE
5
533
100
AcDbEntity
8
0-01-a
6
CONTINUOUS
62
7
100
AcDbLine
10
577.274368377434
20
1017.281932102673
30
0.0
11
605.156859139764
21
1017.281932102673
31
0.0
0
LINE
5
534
100
AcDbEntity
8
0-01-a
6
CONTINUOUS
62
7
100
AcDbLine
10
577.274368377434
20
1003.177168528974
30
0.0
11
605.156859139764
21
1003.177168528974
31
0.0
0
ARC
5
535
100
AcDbEntity
8
0-01-a
6
CONTINUOUS
62
7
100
AcDbCircle
10
728.343424726357
20
992.183064287375
30
0.0
40
24.829715059833
100
AcDbArc
50
264.131414512394
51
338.362444314558
0
LINE
5
536
100
AcDbEntity
8
0-01-a
6
CONTINUOUS
62
7
100
AcDbLine
10
725.516805080515
20
1049.696213024322
30
0.0
11
725.516805080515
21
992.526632752898
31
0.0
0
LINE
5
537
100
AcDbEntity
8
0-01-a
6
CONTINUOUS
62
7
100
AcDbLine
10
753.399295842845
20
1031.386695676371
30
0.0
11
725.516805080515
21
1031.386695676371
31
0.0
0
LINE
5
538
100
AcDbEntity
8
0-01-a
6
CONTINUOUS
62
7
100
AcDbLine
10
753.399295842845
20
1017.281932102673
30
0.0
11
725.516805080515
21
1017.281932102673
31
0.0
0
LINE
5
539
100
AcDbEntity
8
0-01-a
6
CONTINUOUS
62
7
100
AcDbLine
10
753.399295842845
20
1003.177168528974
30
0.0
11
725.516805080515
21
1003.177168528974
31
0.0
0
LINE
5
53a
100
AcDbEntity
8
0-01-a
6
CONTINUOUS
62
7
100
AcDbLine
10
605.156859139764
20
967.483481084096
30
0.0
11
725.804657400113
21
967.483481084096
31
0.0
0
LINE
5
53b
100
AcDbEntity
8
0-01-a
6
CONTINUOUS
62
7
100
AcDbLine
10
1042.847299128034
20
1062.908267209317
30
0.0
11
962.586832116252
21
1062.908267209317
31
0.0
0
LINE
5
53c
100
AcDbEntity
8
0-01-a
6
CONTINUOUS
62
2
100
AcDbLine
10
964.336832116252
20
1067.908267209318
30
0.0
11
366.336832116252
21
1067.908267209318
31
0.0
0
LINE
5
53d
100
AcDbEntity
8
0-01-a
6
CONTINUOUS
62
7
100
AcDbLine
10
1042.847299128034
20
1067.908267209318
30
0.0
11
964.336832116252
21
1067.908267209318
31
0.0
0
LINE
5
53e
100
AcDbEntity
8
0-01-a
6
CONTINUOUS
62
7
100
AcDbLine
10
283.430513411949
20
1067.908267209318
30
0.0
11
366.336832116252
21
1067.908267209318
31
0.0
0
LINE
5
53f
100
AcDbEntity
8
0-01-a
6
CONTINUOUS
62
7
100
AcDbLine
10
219.101102180636
20
1418.719313057286
30
0.0
11
364.836832116252
21
1418.719313057286
31
0.0
0
LINE
5
540
100
AcDbEntity
8
0-01-a
6
CONTINUOUS
62
2
100
AcDbLine
10
438.336832116250
20
1479.969313057286
30
0.0
11
381.336832116250
21
1479.969313057286
31
0.0
0
LINE
5
541
100
AcDbEntity
8
0-01-a
6
CONTINUOUS
62
2
100
AcDbLine
10
438.336832116250
20
1514.969313057286
30
0.0
11
438.336832116250
21
1479.969313057286
31
0.0
0
LINE
5
542
100
AcDbEntity
8
0-01-a
6
CONTINUOUS
62
2
100
AcDbLine
10
438.336832116250
20
1514.969313057286
30
0.0
11
381.336832116250
21
1514.969313057286
31
0.0
0
LINE
5
543
100
AcDbEntity
8
0-01-a
6
CONTINUOUS
62
2
100
AcDbLine
10
406.336832116250
20
1507.469313057286
30
0.0
11
389.336832116250
21
1507.469313057286
31
0.0
0
LINE
5
544
100
AcDbEntity
8
0-01-a
6
CONTINUOUS
62
2
100
AcDbLine
10
406.336832116250
20
1506.469313057286
30
0.0
11
406.336832116250
21
1507.469313057286
31
0.0
0
LINE
5
545
100
AcDbEntity
8
0-01-a
6
CONTINUOUS
62
2
100
AcDbLine
10
406.336832116250
20
1506.469313057286
30
0.0
11
389.336832116250
21
1506.469313057286
31
0.0
0
LINE
5
546
100
AcDbEntity
8
0-01-a
6
CONTINUOUS
62
2
100
AcDbLine
10
406.336832116250
20
1488.469313057286
30
0.0
11
389.336832116250
21
1488.469313057286
31
0.0
0
LINE
5
547
100
AcDbEntity
8
0-01-a
6
CONTINUOUS
62
2
100
AcDbLine
10
406.336832116250
20
1487.469313057286
30
0.0
11
389.336832116250
21
1487.469313057286
31
0.0
0
LINE
5
548
100
AcDbEntity
8
0-01-a
6
CONTINUOUS
62
2
100
AcDbLine
10
406.336832116250
20
1488.469313057286
30
0.0
11
406.336832116250
21
1487.469313057286
31
0.0
0
LINE
5
549
100
AcDbEntity
8
0-01-a
6
CONTINUOUS
62
2
100
AcDbLine
10
389.336832116250
20
1506.469313057286
30
0.0
11
389.336832116250
21
1507.469313057286
31
0.0
0
LINE
5
54a
100
AcDbEntity
8
0-01-a
6
CONTINUOUS
62
2
100
AcDbLine
10
389.336832116250
20
1488.469313057286
30
0.0
11
389.336832116250
21
1487.469313057286
31
0.0
0
LINE
5
54b
100
AcDbEntity
8
0-01-a
6
CONTINUOUS
62
4
100
AcDbLine
10
438.336832116250
20
1499.245421177900
30
0.0
11
438.336832116250
21
1506.469313057286
31
0.0
0
LINE
5
54c
100
AcDbEntity
8
0-01-a
6
CONTINUOUS
62
2
100
AcDbLine
10
892.336832116252
20
1479.969313057286
30
0.0
11
949.336832116252
21
1479.969313057286
31
0.0
0
LINE
5
54d
100
AcDbEntity
8
0-01-a
6
CONTINUOUS
62
2
100
AcDbLine
10
892.336832116252
20
1514.969313057286
30
0.0
11
892.336832116252
21
1479.969313057286
31
0.0
0
LINE
5
54e
100
AcDbEntity
8
0-01-a
6
CONTINUOUS
62
2
100
AcDbLine
10
892.336832116252
20
1514.969313057286
30
0.0
11
949.336832116252
21
1514.969313057286
31
0.0
0
LINE
5
54f
100
AcDbEntity
8
0-01-a
6
CONTINUOUS
62
2
100
AcDbLine
10
924.336832116252
20
1507.469313057286
30
0.0
11
941.336832116252
21
1507.469313057286
31
0.0
0
LINE
5
550
100
AcDbEntity
8
0-01-a
6
CONTINUOUS
62
2
100
AcDbLine
10
924.336832116252
20
1506.469313057286
30
0.0
11
924.336832116252
21
1507.469313057286
31
0.0
0
LINE
5
551
100
AcDbEntity
8
0-01-a
6
CONTINUOUS
62
2
100
AcDbLine
10
924.336832116252
20
1506.469313057286
30
0.0
11
941.336832116252
21
1506.469313057286
31
0.0
0
LINE
5
552
100
AcDbEntity
8
0-01-a
6
CONTINUOUS
62
2
100
AcDbLine
10
924.336832116252
20
1488.469313057286
30
0.0
11
941.336832116252
21
1488.469313057286
31
0.0
0
LINE
5
553
100
AcDbEntity
8
0-01-a
6
CONTINUOUS
62
2
100
AcDbLine
10
924.336832116252
20
1487.469313057286
30
0.0
11
941.336832116252
21
1487.469313057286
31
0.0
0
LINE
5
554
100
AcDbEntity
8
0-01-a
6
CONTINUOUS
62
2
100
AcDbLine
10
924.336832116252
20
1488.469313057286
30
0.0
11
924.336832116252
21
1487.469313057286
31
0.0
0
LINE
5
555
100
AcDbEntity
8
0-01-a
6
CONTINUOUS
62
2
100
AcDbLine
10
941.336832116252
20
1506.469313057286
30
0.0
11
941.336832116252
21
1507.469313057286
31
0.0
0
LINE
5
556
100
AcDbEntity
8
0-01-a
6
CONTINUOUS
62
2
100
AcDbLine
10
941.336832116252
20
1488.469313057286
30
0.0
11
941.336832116252
21
1487.469313057286
31
0.0
0
LINE
5
557
100
AcDbEntity
8
0-01-a
6
CONTINUOUS
62
4
100
AcDbLine
10
892.336832116252
20
1499.245421177900
30
0.0
11
892.336832116252
21
1506.469313057286
31
0.0
0
LINE
5
558
100
AcDbEntity
8
0-01-a
6
CONTINUOUS
62
7
100
AcDbLine
10
368.336832116249
20
1348.808465947274
30
0.0
11
368.336832116249
21
1418.719313057286
31
0.0
0
POLYLINE
5
559
100
AcDbEntity
  8
0-01-a
6
CONTINUOUS
62
4
100
AcDb2dPolyline
66
1
10
0
20
0
70
1
40
3.200
41
3.200
0
VERTEX
5
55a
100
AcDbEntity
  8
0-01-a
6
CONTINUOUS
62
4
100
AcDbVertex
100
AcDb2dVertex
10
366.737
20
1348.808
30
0.0
42
1.000
0
VERTEX
5
55b
100
AcDbEntity
  8
0-01-a
6
CONTINUOUS
62
4
100
AcDbVertex
100
AcDb2dVertex
10
369.937
20
1348.808
30
0.0
42
1.000
0
SEQEND
5
55c
100
AcDbEntity
  8
0-01-a
0
LINE
5
55d
100
AcDbEntity
8
0-01-a
6
CONTINUOUS
62
7
100
AcDbLine
10
284.930513411949
20
1471.719313057286
30
0.0
11
368.336832116249
21
1471.719313057286
31
0.0
0
LINE
5
55e
100
AcDbEntity
8
0-01-a
6
CONTINUOUS
62
2
100
AcDbLine
10
368.336832116249
20
1471.719313057286
30
0.0
11
368.336832116249
21
1418.719313057286
31
0.0
0
LINE
5
55f
100
AcDbEntity
8
0-01-a
6
CONTINUOUS
62
7
100
AcDbLine
10
284.930513411949
20
1418.719313057286
30
0.0
11
368.336832116249
21
1418.719313057286
31
0.0
0
LINE
5
560
100
AcDbEntity
8
0-01-a
6
CONTINUOUS
62
7
100
AcDbLine
10
283.430513411949
20
1062.908267209317
30
0.0
11
368.086832116251
21
1062.908267209317
31
0.0
0
LINE
5
561
100
AcDbEntity
8
0-01-a
6
CONTINUOUS
62
7
100
AcDbLine
10
283.430513411949
20
417.908267211317
30
0.0
11
368.336832116251
21
417.908267211317
31
0.0
0
LINE
5
562
100
AcDbEntity
8
0-01-a
6
CONTINUOUS
62
7
100
AcDbLine
10
962.336832116249
20
1348.808465947274
30
0.0
11
962.336832116249
21
1418.719313057286
31
0.0
0
LINE
5
563
100
AcDbEntity
8
0-01-a
6
CONTINUOUS
62
2
100
AcDbLine
10
962.336832116249
20
1418.719313057286
30
0.0
11
962.336832116249
21
1471.719313057286
31
0.0
0
POLYLINE
5
564
100
AcDbEntity
  8
0-01-a
6
CONTINUOUS
62
4
100
AcDb2dPolyline
66
1
10
0
20
0
70
1
40
3.200
41
3.200
0
VERTEX
5
565
100
AcDbEntity
  8
0-01-a
6
CONTINUOUS
62
4
100
AcDbVertex
100
AcDb2dVertex
10
960.737
20
1348.808
30
0.0
42
1.000
0
VERTEX
5
566
100
AcDbEntity
  8
0-01-a
6
CONTINUOUS
62
4
100
AcDbVertex
100
AcDb2dVertex
10
963.937
20
1348.808
30
0.0
42
1.000
0
SEQEND
5
567
100
AcDbEntity
  8
0-01-a
0
LINE
5
568
100
AcDbEntity
8
0-01-a
6
CONTINUOUS
62
2
100
AcDbLine
10
368.336832116249
20
1418.719313057286
30
0.0
11
962.336832116249
21
1418.719313057286
31
0.0
0
LINE
5
569
100
AcDbEntity
8
0-01-a
6
CONTINUOUS
62
2
100
AcDbLine
10
368.336832116249
20
1471.719313057286
30
0.0
11
962.336832116249
21
1471.719313057286
31
0.0
0
LINE
5
56a
100
AcDbEntity
8
0-01-a
6
CONTINUOUS
62
4
100
AcDbLine
10
368.336832116249
20
1348.808465947274
30
0.0
11
962.336832116249
21
1348.808465947274
31
0.0
0
LINE
5
56b
100
AcDbEntity
8
0-01-a
6
CONTINUOUS
62
2
100
AcDbLine
10
962.336832116251
20
1062.908267209317
30
0.0
11
368.336832116251
21
1062.908267209317
31
0.0
0
LINE
5
56c
100
AcDbEntity
8
0-01-a
6
CONTINUOUS
62
2
100
AcDbLine
10
374.336832116252
20
254.908267201317
30
0.0
11
413.336832116252
21
254.908267201317
31
0.0
0
LINE
5
56d
100
AcDbEntity
8
0-01-a
6
CONTINUOUS
62
2
100
AcDbLine
10
413.336832116252
20
266.908267201317
30
0.0
11
413.336832116252
21
254.908267201317
31
0.0
0
POLYLINE
5
56e
100
AcDbEntity
8
0-01-a
6
CONTINUOUS
62
  2
100
AcDb2dPolyline
66
1
10
0.0
20
0.0
30
0.0
70
0
0
VERTEX
5
56f
100
AcDbEntity
8
0-01-a
6
CONTINUOUS
62
  2
100
AcDbVertex
100
AcDb2dVertex
10
413.336832116252
20
266.908267201317
30
0.0
0
VERTEX
5
570
100
AcDbEntity
8
0-01-a
6
CONTINUOUS
62
  2
100
AcDbVertex
100
AcDb2dVertex
10
490.336832116252
20
266.908267201317
30
0.0
0
VERTEX
5
571
100
AcDbEntity
8
0-01-a
6
CONTINUOUS
62
  2
100
AcDbVertex
100
AcDb2dVertex
10
490.336832116252
20
254.908267201317
30
0.0
0
SEQEND
5
572
100
AcDbEntity
8
0-01-a
0
POLYLINE
5
573
100
AcDbEntity
8
0-01-a
6
CONTINUOUS
62
  2
100
AcDb2dPolyline
66
1
10
0.0
20
0.0
30
0.0
70
0
0
VERTEX
5
574
100
AcDbEntity
8
0-01-a
6
CONTINUOUS
62
  2
100
AcDbVertex
100
AcDb2dVertex
10
413.336832116252
20
291.908267201317
30
0.0
0
VERTEX
5
575
100
AcDbEntity
8
0-01-a
6
CONTINUOUS
62
  2
100
AcDbVertex
100
AcDb2dVertex
10
413.336832116252
20
268.908267201317
30
0.0
0
VERTEX
5
576
100
AcDbEntity
8
0-01-a
6
CONTINUOUS
62
  2
100
AcDbVertex
100
AcDb2dVertex
10
425.336832116252
20
268.908267201317
30
0.0
0
SEQEND
5
577
100
AcDbEntity
8
0-01-a
0
LINE
5
578
100
AcDbEntity
8
0-01-a
6
CONTINUOUS
62
2
100
AcDbLine
10
425.336832116252
20
291.908267201317
30
0.0
11
425.336832116252
21
268.908267201317
31
0.0
0
LINE
5
579
100
AcDbEntity
8
0-01-a
6
CONTINUOUS
62
2
100
AcDbLine
10
413.336832116252
20
291.908267201317
30
0.0
11
425.336832116252
21
291.908267201317
31
0.0
0
LINE
5
57a
100
AcDbEntity
8
0-01-a
6
CONTINUOUS
62
2
100
AcDbLine
10
917.336832116254
20
266.908267201317
30
0.0
11
840.336832116254
21
266.908267201317
31
0.0
0
POLYLINE
5
57b
100
AcDbEntity
8
0-01-a
6
CONTINUOUS
62
  2
100
AcDb2dPolyline
66
1
10
0.0
20
0.0
30
0.0
70
0
0
VERTEX
5
57c
100
AcDbEntity
8
0-01-a
6
CONTINUOUS
62
  2
100
AcDbVertex
100
AcDb2dVertex
10
917.336832116254
20
291.908267201317
30
0.0
0
VERTEX
5
57d
100
AcDbEntity
8
0-01-a
6
CONTINUOUS
62
  2
100
AcDbVertex
100
AcDb2dVertex
10
917.336832116254
20
268.908267201317
30
0.0
0
VERTEX
5
57e
100
AcDbEntity
8
0-01-a
6
CONTINUOUS
62
  2
100
AcDbVertex
100
AcDb2dVertex
10
905.336832116254
20
268.908267201317
30
0.0
0
SEQEND
5
57f
100
AcDbEntity
8
0-01-a
0
LINE
5
580
100
AcDbEntity
8
0-01-a
6
CONTINUOUS
62
2
100
AcDbLine
10
905.336832116254
20
291.908267201317
30
0.0
11
905.336832116254
21
268.908267201317
31
0.0
0
LINE
5
581
100
AcDbEntity
8
0-01-a
6
CONTINUOUS
62
2
100
AcDbLine
10
917.336832116254
20
291.908267201317
30
0.0
11
905.336832116254
21
291.908267201317
31
0.0
0
LINE
5
582
100
AcDbEntity
8
0-01-a
6
CONTINUOUS
62
2
100
AcDbLine
10
840.336832116254
20
266.908267201317
30
0.0
11
840.336832116254
21
254.908267201317
31
0.0
0
LINE
5
583
100
AcDbEntity
8
0-01-a
6
CONTINUOUS
62
2
100
AcDbLine
10
490.336832116252
20
254.908267201317
30
0.0
11
840.336832116254
21
254.908267201317
31
0.0
0
LINE
5
584
100
AcDbEntity
8
0-01-a
6
CONTINUOUS
62
2
100
AcDbLine
10
917.336832116254
20
266.908267201317
30
0.0
11
917.336832116254
21
254.908267201317
31
0.0
0
POLYLINE
5
585
100
AcDbEntity
8
0-01-a
6
CONTINUOUS
62
  2
100
AcDb2dPolyline
66
1
10
0.0
20
0.0
30
0.0
70
0
0
VERTEX
5
586
100
AcDbEntity
8
0-01-a
6
CONTINUOUS
62
  2
100
AcDbVertex
100
AcDb2dVertex
10
956.336832116254
20
254.908267201317
30
0.0
0
VERTEX
5
587
100
AcDbEntity
8
0-01-a
6
CONTINUOUS
62
  2
100
AcDbVertex
100
AcDb2dVertex
10
917.336832116254
20
254.908267201317
30
0.0
0
VERTEX
5
588
100
AcDbEntity
8
0-01-a
6
CONTINUOUS
62
  2
100
AcDbVertex
100
AcDb2dVertex
10
956.336832116254
20
254.908267201317
30
0.0
0
SEQEND
5
589
100
AcDbEntity
8
0-01-a
0
LINE
5
58a
100
AcDbEntity
8
0-01-a
6
CONTINUOUS
62
2
100
AcDbLine
10
956.336832116254
20
266.908267201317
30
0.0
11
956.336832116254
21
254.908267201317
31
0.0
0
CIRCLE
5
58b
100
AcDbEntity
8
0-01-a
6
CONTINUOUS
62
2
100
AcDbCircle
10
438.336832116252
20
273.908267201317
30
0.0
40
5.000000000000
0
CIRCLE
5
58c
100
AcDbEntity
8
0-01-a
6
CONTINUOUS
62
2
100
AcDbCircle
10
438.336832116252
20
273.908267201317
30
0.0
40
3.145277730000
0
CIRCLE
5
58d
100
AcDbEntity
8
0-01-a
6
CONTINUOUS
62
2
100
AcDbCircle
10
633.836832116252
20
285.408267201317
30
0.0
40
8.500000000000
0
CIRCLE
5
58e
100
AcDbEntity
8
0-01-a
6
CONTINUOUS
62
2
100
AcDbCircle
10
633.836832116252
20
285.408267201317
30
0.0
40
7.500000000000
0
POLYLINE
5
58f
100
AcDbEntity
8
0-01-a
6
CONTINUOUS
62
  2
100
AcDb2dPolyline
66
1
10
0.0
20
0.0
30
0.0
70
0
0
VERTEX
5
590
100
AcDbEntity
8
0-01-a
6
CONTINUOUS
62
  2
100
AcDbVertex
100
AcDb2dVertex
10
638.836832116252
20
282.521515855369
30
0.0
0
VERTEX
5
591
100
AcDbEntity
8
0-01-a
6
CONTINUOUS
62
  2
100
AcDbVertex
100
AcDb2dVertex
10
638.836832116252
20
288.295018547266
30
0.0
0
VERTEX
5
592
100
AcDbEntity
8
0-01-a
6
CONTINUOUS
62
  2
100
AcDbVertex
100
AcDb2dVertex
10
633.836832116252
20
291.181769893214
30
0.0
0
VERTEX
5
593
100
AcDbEntity
8
0-01-a
6
CONTINUOUS
62
  2
100
AcDbVertex
100
AcDb2dVertex
10
628.836832116252
20
288.295018547266
30
0.0
0
VERTEX
5
594
100
AcDbEntity
8
0-01-a
6
CONTINUOUS
62
  2
100
AcDbVertex
100
AcDb2dVertex
10
628.836832116252
20
282.521515855369
30
0.0
0
VERTEX
5
595
100
AcDbEntity
8
0-01-a
6
CONTINUOUS
62
  2
100
AcDbVertex
100
AcDb2dVertex
10
633.836832116252
20
279.634764509421
30
0.0
0
VERTEX
5
596
100
AcDbEntity
8
0-01-a
6
CONTINUOUS
62
  2
100
AcDbVertex
100
AcDb2dVertex
10
638.836832116252
20
282.521515855369
30
0.0
0
SEQEND
5
597
100
AcDbEntity
8
0-01-a
0
POLYLINE
5
598
100
AcDbEntity
8
0-01-a
6
CONTINUOUS
62
  2
100
AcDb2dPolyline
66
1
10
0.0
20
0.0
30
0.0
70
0
0
VERTEX
5
599
100
AcDbEntity
8
0-01-a
6
CONTINUOUS
62
  2
100
AcDbVertex
100
AcDb2dVertex
10
366.336832116252
20
1067.908267209318
30
0.0
0
VERTEX
5
59a
100
AcDbEntity
8
0-01-a
6
CONTINUOUS
62
  2
100
AcDbVertex
100
AcDb2dVertex
10
366.336832116252
20
266.908267201317
30
0.0
0
VERTEX
5
59b
100
AcDbEntity
8
0-01-a
6
CONTINUOUS
62
  2
100
AcDbVertex
100
AcDb2dVertex
10
374.336832116252
20
266.908267201317
30
0.0
0
VERTEX
5
59c
100
AcDbEntity
8
0-01-a
6
CONTINUOUS
62
  2
100
AcDbVertex
100
AcDb2dVertex
10
374.336832116252
20
254.908267161317
30
0.0
0
SEQEND
5
59d
100
AcDbEntity
8
0-01-a
0
LINE
5
59e
100
AcDbEntity
8
0-01-a
6
CONTINUOUS
62
2
100
AcDbLine
10
964.336832116252
20
266.908267201317
30
0.0
11
956.336832116254
21
266.908267201317
31
0.0
0
LINE
5
59f
100
AcDbEntity
8
0-01-a
6
CONTINUOUS
62
2
100
AcDbLine
10
964.336832116252
20
266.908267201317
30
0.0
11
964.336832116252
21
1067.908267209318
31
0.0
0
TEXT
5
5a0
100
AcDbEntity
8
0-01-a
62
7
100
AcDbText
10
640.867
20
1357.720
30
0.0
40
26.928
41
0.597
50
0.000
1
594
72
1
11
667.867
21
1354.728
31
0.0
100
AcDbText
73
1
0
LINE
5
5a1
100
AcDbEntity
8
0-01-a
6
CONTINUOUS
62
2
100
AcDbLine
10
424.336832116252
20
259.908267201317
30
0.0
11
452.336832116252
21
259.908267201317
31
0.0
0
LINE
5
5a2
100
AcDbEntity
8
0-01-a
6
CONTINUOUS
62
2
100
AcDbLine
10
417.336832116252
20
266.908267201317
30
0.0
11
424.336832116252
21
259.908267201317
31
0.0
0
LINE
5
5a3
100
AcDbEntity
8
0-01-a
6
CONTINUOUS
62
2
100
AcDbLine
10
459.336832116252
20
266.908267201317
30
0.0
11
452.336832116252
21
259.908267201317
31
0.0
0
POLYLINE
5
5a4
100
AcDbEntity
8
0-01-a
6
CONTINUOUS
62
  2
100
AcDb2dPolyline
66
1
10
0.0
20
0.0
30
0.0
70
0
0
VERTEX
5
5a5
100
AcDbEntity
8
0-01-a
6
CONTINUOUS
62
  2
100
AcDbVertex
100
AcDb2dVertex
10
913.336832116254
20
266.908267201317
30
0.0
0
VERTEX
5
5a6
100
AcDbEntity
8
0-01-a
6
CONTINUOUS
62
  2
100
AcDbVertex
100
AcDb2dVertex
10
906.336832116254
20
259.908267201317
30
0.0
0
VERTEX
5
5a7
100
AcDbEntity
8
0-01-a
6
CONTINUOUS
62
  2
100
AcDbVertex
100
AcDb2dVertex
10
878.336832116254
20
259.908267201317
30
0.0
0
SEQEND
5
5a8
100
AcDbEntity
8
0-01-a
0
LINE
5
5a9
100
AcDbEntity
8
0-01-a
6
CONTINUOUS
62
2
100
AcDbLine
10
871.336832116254
20
266.908267201317
30
0.0
11
878.336832116254
21
259.908267201317
31
0.0
0
CIRCLE
5
5aa
100
AcDbEntity
8
0-01-a
6
CONTINUOUS
62
2
100
AcDbCircle
10
892.336832116254
20
273.908267201317
30
0.0
40
5.000000000000
0
CIRCLE
5
5ab
100
AcDbEntity
8
0-01-a
6
CONTINUOUS
62
2
100
AcDbCircle
10
892.336832116254
20
273.908267201317
30
0.0
40
3.145277730000
0
POLYLINE
5
5ac
100
AcDbEntity
  8
0-01-a
6
CONTINUOUS
62
4
100
AcDb2dPolyline
66
1
10
0
20
0
70
1
40
3.200
41
3.200
0
VERTEX
5
5ad
100
AcDbEntity
  8
0-01-a
6
CONTINUOUS
62
4
100
AcDbVertex
100
AcDb2dVertex
10
217.501
20
194.908
30
0.0
42
1.000
0
VERTEX
5
5ae
100
AcDbEntity
  8
0-01-a
6
CONTINUOUS
62
4
100
AcDbVertex
100
AcDb2dVertex
10
220.701
20
194.908
30
0.0
42
1.000
0
SEQEND
5
5af
100
AcDbEntity
  8
0-01-a
0
LINE
5
5b0
100
AcDbEntity
8
0-01-a
6
CONTINUOUS
62
4
100
AcDbLine
10
219.101102180636
20
254.908267161317
30
0.0
11
374.336832116252
21
254.908267161317
31
0.0
0
POLYLINE
5
5b1
100
AcDbEntity
  8
0-01-a
6
CONTINUOUS
62
4
100
AcDb2dPolyline
66
1
10
0
20
0
70
1
40
3.200
41
3.200
0
VERTEX
5
5b2
100
AcDbEntity
  8
0-01-a
6
CONTINUOUS
62
4
100
AcDbVertex
100
AcDb2dVertex
10
217.501
20
254.908
30
0.0
42
1.000
0
VERTEX
5
5b3
100
AcDbEntity
  8
0-01-a
6
CONTINUOUS
62
4
100
AcDbVertex
100
AcDb2dVertex
10
220.701
20
254.908
30
0.0
42
1.000
0
SEQEND
5
5b4
100
AcDbEntity
  8
0-01-a
0
POLYLINE
5
5b5
100
AcDbEntity
  8
0-01-a
6
CONTINUOUS
62
4
100
AcDb2dPolyline
66
1
10
0
20
0
70
1
40
3.200
41
3.200
0
VERTEX
5
5b6
100
AcDbEntity
  8
0-01-a
6
CONTINUOUS
62
4
100
AcDbVertex
100
AcDb2dVertex
10
217.501
20
194.908
30
0.0
42
1.000
0
VERTEX
5
5b7
100
AcDbEntity
  8
0-01-a
6
CONTINUOUS
62
4
100
AcDbVertex
100
AcDb2dVertex
10
220.701
20
194.908
30
0.0
42
1.000
0
SEQEND
5
5b8
100
AcDbEntity
  8
0-01-a
0
LINE
5
5b9
100
AcDbEntity
8
0-01-a
6
CONTINUOUS
62
4
100
AcDbLine
10
219.101102180636
20
194.908267161317
30
0.0
11
424.336832116252
21
194.908267161317
31
0.0
0
LINE
5
5ba
100
AcDbEntity
8
0-01-a
6
CONTINUOUS
62
7
100
AcDbLine
10
219.101102180636
20
254.908267161317
30
0.0
11
219.101102180636
21
194.908267161317
31
0.0
0
POLYLINE
5
5bb
100
AcDbEntity
8
0-01-a
6
CONTINUOUS
62
  7
100
AcDb2dPolyline
66
1
10
0.0
20
0.0
30
0.0
70
0
0
VERTEX
5
5bc
100
AcDbEntity
8
0-01-a
6
CONTINUOUS
62
  7
100
AcDbVertex
100
AcDb2dVertex
10
219.101102180636
20
224.908267161317
30
0.0
0
VERTEX
5
5bd
100
AcDbEntity
8
0-01-a
6
CONTINUOUS
62
  7
100
AcDbVertex
100
AcDb2dVertex
10
147.664097985464
20
205.766779577522
30
0.0
0
VERTEX
5
5be
100
AcDbEntity
8
0-01-a
6
CONTINUOUS
62
  7
100
AcDbVertex
100
AcDb2dVertex
10
147.664097985464
20
175.723994665371
30
0.0
0
SEQEND
5
5bf
100
AcDbEntity
8
0-01-a
0
LINE
5
5c0
100
AcDbEntity
8
0-01-a
6
CONTINUOUS
62
4
100
AcDbLine
10
368.336832116251
20
799.960884382854
30
0.0
11
962.336832116251
21
799.960884382854
31
0.0
0
POLYLINE
5
5c1
100
AcDbEntity
  8
0-01-a
6
CONTINUOUS
62
4
100
AcDb2dPolyline
66
1
10
0
20
0
70
1
40
3.200
41
3.200
0
VERTEX
5
5c2
100
AcDbEntity
  8
0-01-a
6
CONTINUOUS
62
4
100
AcDbVertex
100
AcDb2dVertex
10
366.737
20
799.961
30
0.0
42
1.000
0
VERTEX
5
5c3
100
AcDbEntity
  8
0-01-a
6
CONTINUOUS
62
4
100
AcDbVertex
100
AcDb2dVertex
10
369.937
20
799.961
30
0.0
42
1.000
0
SEQEND
5
5c4
100
AcDbEntity
  8
0-01-a
0
POLYLINE
5
5c5
100
AcDbEntity
  8
0-01-a
6
CONTINUOUS
62
4
100
AcDb2dPolyline
66
1
10
0
20
0
70
1
40
3.200
41
3.200
0
VERTEX
5
5c6
100
AcDbEntity
  8
0-01-a
6
CONTINUOUS
62
4
100
AcDbVertex
100
AcDb2dVertex
10
960.737
20
799.961
30
0.0
42
1.000
0
VERTEX
5
5c7
100
AcDbEntity
  8
0-01-a
6
CONTINUOUS
62
4
100
AcDbVertex
100
AcDb2dVertex
10
963.937
20
799.961
30
0.0
42
1.000
0
SEQEND
5
5c8
100
AcDbEntity
  8
0-01-a
0
LINE
5
5c9
100
AcDbEntity
8
0-01-a
6
CONTINUOUS
62
2
100
AcDbLine
10
368.336832116251
20
1062.908267209317
30
0.0
11
368.336832116251
21
948.908267209317
31
0.0
0
LINE
5
5ca
100
AcDbEntity
8
0-01-a
6
CONTINUOUS
62
2
100
AcDbLine
10
962.336832116251
20
948.908267209317
30
0.0
11
368.336832116251
21
948.908267209317
31
0.0
0
LINE
5
5cb
100
AcDbEntity
8
0-01-a
6
CONTINUOUS
62
2
100
AcDbLine
10
962.336832116251
20
1062.908267209317
30
0.0
11
962.336832116251
21
948.908267209317
31
0.0
0
LINE
5
5cc
100
AcDbEntity
8
0-01-a
6
CONTINUOUS
62
4
100
AcDbLine
10
368.336832116251
20
799.960884382854
30
0.0
11
368.336832116251
21
948.908267209317
31
0.0
0
LINE
5
5cd
100
AcDbEntity
8
0-01-a
6
CONTINUOUS
62
4
100
AcDbLine
10
962.336832116251
20
799.960884382854
30
0.0
11
962.336832116251
21
948.908267209317
31
0.0
0
LINE
5
5ce
100
AcDbEntity
8
0-01-a
6
CONTINUOUS
62
2
100
AcDbLine
10
959.336832116251
20
417.908267211317
30
0.0
11
371.336832116251
21
417.908267211317
31
0.0
0
LINE
5
5cf
100
AcDbEntity
8
0-01-a
6
CONTINUOUS
62
2
100
AcDbLine
10
371.336832116251
20
948.908267209317
30
0.0
11
371.336832116251
21
417.908267211317
31
0.0
0
LINE
5
5d0
100
AcDbEntity
8
0-01-a
6
CONTINUOUS
62
2
100
AcDbLine
10
959.336832116251
20
948.908267209317
30
0.0
11
959.336832116251
21
417.908267211317
31
0.0
0
POLYLINE
5
5d1
100
AcDbEntity
8
0-01-a
6
CONTINUOUS
62
  7
100
AcDb2dPolyline
66
1
10
0.0
20
0.0
30
0.0
70
0
0
VERTEX
5
5d2
100
AcDbEntity
8
0-01-a
6
CONTINUOUS
62
  7
100
AcDbVertex
100
AcDb2dVertex
10
291.519257713070
20
2052.791286771463
30
0.0
0
VERTEX
5
5d3
100
AcDbEntity
8
0-01-a
6
CONTINUOUS
62
  7
100
AcDbVertex
100
AcDb2dVertex
10
86.526849854117
20
2052.791286771463
30
0.0
0
VERTEX
5
5d4
100
AcDbEntity
8
0-01-a
6
CONTINUOUS
62
  7
100
AcDbVertex
100
AcDb2dVertex
10
86.526849854117
20
2141.181257616944
30
0.0
0
VERTEX
5
5d5
100
AcDbEntity
8
0-01-a
6
CONTINUOUS
62
  7
100
AcDbVertex
100
AcDb2dVertex
10
291.519257713070
20
2141.181257616944
30
0.0
0
SEQEND
5
5d6
100
AcDbEntity
8
0-01-a
0
LINE
5
5d7
100
AcDbEntity
8
0-01-a
6
CONTINUOUS
62
7
100
AcDbLine
10
86.526849854117
20
1219.370211766378
30
0.0
11
291.519257713070
21
1219.370211766378
31
0.0
0
LINE
5
5d8
100
AcDbEntity
8
0-01-a
6
CONTINUOUS
62
7
100
AcDbLine
10
86.526849854117
20
1130.980240920897
30
0.0
11
86.526849854117
21
1219.370211766378
31
0.0
0
LINE
5
5d9
100
AcDbEntity
8
0-01-a
6
CONTINUOUS
62
7
100
AcDbLine
10
291.519257713070
20
1130.980240920897
30
0.0
11
86.526849854117
21
1130.980240920897
31
0.0
0
TEXT
5
5da
100
AcDbEntity
8
0-01-a
62
3
100
AcDbText
10
110.943
20
1158.543
30
0.0
40
40.392
41
0.999
50
0.000
1
正面図
72
1
11
193.023
21
1179.175
31
0.0
100
AcDbText
73
2
0
TEXT
5
5db
100
AcDbEntity
8
0-01-a
62
3
100
AcDbText
10
110.943
20
2080.354
30
0.0
40
40.392
41
0.999
50
0.000
1
平面図
72
1
11
193.023
21
2100.986
31
0.0
100
AcDbText
73
2
0
TEXT
5
5dc
100
AcDbEntity
8
0-01-a
62
7
100
AcDbText
10
116.793
20
143.687
30
0.0
40
26.928
41
0.963
50
0.000
1
アジャスター調整
72
1
11
259.513
21
156.775
31
0.0
100
AcDbText
73
2
0
MTEXT
5
5dd
100
AcDbEntity
8
0-01-a
62
7
100
AcDbMText
10
402.793
20
100.315
30
0.0
40
25.432
41
0.000
71
9
72
1
1
\W1.093;{\W0.787;0}～{\W0.787;60mm}
7
STANDARD
11
1.00000
21
0.00000
31
0.0
0
TEXT
5
5de
100
AcDbEntity
8
0-01-a
62
7
100
AcDbText
10
1033.935
20
1077.308
30
0.0
40
26.928
41
0.564
50
90.000
1
5
72
1
11
1036.927
21
1086.308
31
0.0
100
AcDbText
73
1
0
LINE
5
5df
100
AcDbEntity
8
0-01-a
6
CONTINUOUS
62
4
100
AcDbLine
10
1042.847299128034
20
1062.908267209317
30
0.0
11
1042.847299128034
21
1093.665440494181
31
0.0
0
ARC
5
5e0
100
AcDbEntity
8
0-01-a
6
CONTINUOUS
62
2
100
AcDbCircle
10
1413.396434595570
20
977.468567326303
30
0.0
40
2.196010737366
100
AcDbArc
50
173.962696029307
51
366.037303970693
0
ARC
5
5e1
100
AcDbEntity
8
0-01-a
6
CONTINUOUS
62
2
100
AcDbCircle
10
1413.396434595570
20
987.908267209283
30
0.0
40
10.439699882979
100
AcDbArc
50
102.074607941387
51
257.925392058613
0
ARC
5
5e2
100
AcDbEntity
8
0-01-a
6
CONTINUOUS
62
2
100
AcDbCircle
10
1413.396434595570
20
998.347967092262
30
0.0
40
2.196010737366
100
AcDbArc
50
353.962696029307
51
546.037303970693
0
ARC
5
5e3
100
AcDbEntity
8
0-01-a
6
CONTINUOUS
62
2
100
AcDbCircle
10
1413.396434595570
20
987.908267209283
30
0.0
40
10.439699882979
100
AcDbArc
50
282.074607941387
51
437.925392058613
0
LINE
5
5e4
100
AcDbEntity
8
0-01-a
6
CONTINUOUS
62
4
100
AcDbLine
10
1517.823878679636
20
987.908267209283
30
0.0
11
1413.396434595570
21
987.908267209283
31
0.0
0
LINE
5
5e5
100
AcDbEntity
8
0-01-a
6
CONTINUOUS
62
7
100
AcDbLine
10
1418.616284537059
20
978.867221902738
30
0.0
11
1482.480178790411
21
868.251712286726
31
0.0
0
LINE
5
5e6
100
AcDbEntity
8
0-01-a
6
CONTINUOUS
62
4
100
AcDbLine
10
1413.396434595570
20
936.058456659498
30
0.0
11
1413.396434595570
21
987.908267209283
31
0.0
0
LINE
5
5e7
100
AcDbEntity
8
0-01-a
6
CONTINUOUS
62
4
100
AcDbLine
10
1913.396434595570
20
1177.104846587143
30
0.0
11
1913.396434595570
21
1067.908267209283
31
0.0
0
LINE
5
5e8
100
AcDbEntity
8
0-01-a
6
CONTINUOUS
62
4
100
AcDbLine
10
2040.849776597053
20
1067.908267209283
30
0.0
11
1913.396434595570
21
1067.908267209283
31
0.0
0
LINE
5
5e9
100
AcDbEntity
8
0-01-a
6
CONTINUOUS
62
4
100
AcDbLine
10
2040.849776597053
20
254.908267206721
30
0.0
11
1860.396434595570
21
254.908267206721
31
0.0
0
LINE
5
5ea
100
AcDbEntity
8
0-01-a
6
CONTINUOUS
62
4
100
AcDbLine
10
1981.673294668809
20
254.908267206721
30
0.0
11
1913.396434595570
21
254.908267206721
31
0.0
0
LINE
5
5eb
100
AcDbEntity
8
0-01-a
6
CONTINUOUS
62
2
100
AcDbLine
10
1398.396434595570
20
439.908267208002
30
0.0
11
1398.396434595570
21
1067.908267209283
31
0.0
0
LINE
5
5ec
100
AcDbEntity
8
0-01-a
6
CONTINUOUS
62
2
100
AcDbLine
10
1393.396434595570
20
417.908267208002
30
0.0
11
1393.396434595570
21
1062.908267209283
31
0.0
0
LINE
5
5ed
100
AcDbEntity
8
0-01-a
6
CONTINUOUS
62
2
100
AcDbLine
10
1398.396434595570
20
1067.908267209283
30
0.0
11
1913.396434595570
21
1067.908267209283
31
0.0
0
POLYLINE
5
5ee
100
AcDbEntity
  8
0-01-a
6
CONTINUOUS
62
4
100
AcDb2dPolyline
66
1
10
0
20
0
70
1
40
3.200
41
3.200
0
VERTEX
5
5ef
100
AcDbEntity
  8
0-01-a
6
CONTINUOUS
62
4
100
AcDbVertex
100
AcDb2dVertex
10
1361.796
20
550.795
30
0.0
42
1.000
0
VERTEX
5
5f0
100
AcDbEntity
  8
0-01-a
6
CONTINUOUS
62
4
100
AcDbVertex
100
AcDb2dVertex
10
1364.996
20
550.795
30
0.0
42
1.000
0
SEQEND
5
5f1
100
AcDbEntity
  8
0-01-a
0
LINE
5
5f2
100
AcDbEntity
8
0-01-a
6
CONTINUOUS
62
4
100
AcDbLine
10
1393.396434595570
20
550.794862641328
30
0.0
11
1297.878111802721
21
550.794862641328
31
0.0
0
POLYLINE
5
5f3
100
AcDbEntity
  8
0-01-a
6
CONTINUOUS
62
6
100
AcDb2dPolyline
66
1
10
0
20
0
70
1
40
3.200
41
3.200
0
VERTEX
5
5f4
100
AcDbEntity
  8
0-01-a
6
CONTINUOUS
62
6
100
AcDbVertex
100
AcDb2dVertex
10
1391.796
20
550.795
30
0.0
42
1.000
0
VERTEX
5
5f5
100
AcDbEntity
  8
0-01-a
6
CONTINUOUS
62
6
100
AcDbVertex
100
AcDb2dVertex
10
1394.996
20
550.795
30
0.0
42
1.000
0
SEQEND
5
5f6
100
AcDbEntity
  8
0-01-a
0
LINE
5
5f7
100
AcDbEntity
8
0-01-a
6
CONTINUOUS
62
4
100
AcDbLine
10
1393.396434595570
20
1121.580675459175
30
0.0
11
1393.396434595570
21
1062.908267209283
31
0.0
0
LINE
5
5f8
100
AcDbEntity
8
0-01-a
6
CONTINUOUS
62
2
100
AcDbLine
10
1340.396434595570
20
1062.908267209283
30
0.0
11
1393.396434595570
21
1062.908267209283
31
0.0
0
LINE
5
5f9
100
AcDbEntity
8
0-01-a
6
CONTINUOUS
62
2
100
AcDbLine
10
1345.396434595570
20
1062.908267209283
30
0.0
11
1393.396434595570
21
1062.908267209283
31
0.0
0
LINE
5
5fa
100
AcDbEntity
8
0-01-a
6
CONTINUOUS
62
4
100
AcDbLine
10
1340.396434595570
20
1121.580675459175
30
0.0
11
1340.396434595570
21
1062.908267209283
31
0.0
0
LINE
5
5fb
100
AcDbEntity
8
0-01-a
6
CONTINUOUS
62
4
100
AcDbLine
10
1340.396434595570
20
1177.104846587143
30
0.0
11
1340.396434595570
21
1062.908267209283
31
0.0
0
LINE
5
5fc
100
AcDbEntity
8
0-01-a
6
CONTINUOUS
62
7
100
AcDbLine
10
1703.821726940857
20
1347.474327263182
30
0.0
11
1616.332690231597
21
1434.963363972442
31
0.0
0
CIRCLE
5
5fd
100
AcDbEntity
8
0-01-a
6
CONTINUOUS
62
2
100
AcDbCircle
10
1703.821726940857
20
1347.474327263182
30
0.0
40
15.000000000000
0
LINE
5
5fe
100
AcDbEntity
8
0-01-a
6
CONTINUOUS
62
7
100
AcDbLine
10
1703.821726940857
20
1369.202811400182
30
0.0
11
1703.821726940857
21
1325.745843126182
31
0.0
0
LINE
5
5ff
100
AcDbEntity
8
0-01-a
6
CONTINUOUS
62
7
100
AcDbLine
10
1725.550211077857
20
1347.474327263182
30
0.0
11
1682.093242803857
21
1347.474327263182
31
0.0
0
LINE
5
600
100
AcDbEntity
8
0-01-a
6
CONTINUOUS
62
7
100
AcDbLine
10
1628.870892390883
20
1312.474327263182
30
0.0
11
1682.093242803857
21
1312.474327263182
31
0.0
0
LINE
5
601
100
AcDbEntity
8
0-01-a
6
CONTINUOUS
62
7
100
AcDbLine
10
1628.870892390883
20
1347.474327263182
30
0.0
11
1682.093242803857
21
1347.474327263182
31
0.0
0
POLYLINE
5
602
100
AcDbEntity
  8
0-01-a
6
CONTINUOUS
62
6
100
AcDb2dPolyline
66
1
10
0
20
0
70
1
40
3.200
41
3.200
0
VERTEX
5
603
100
AcDbEntity
  8
0-01-a
6
CONTINUOUS
62
6
100
AcDbVertex
100
AcDb2dVertex
10
1627.271
20
1347.474
30
0.0
42
1.000
0
VERTEX
5
604
100
AcDbEntity
  8
0-01-a
6
CONTINUOUS
62
6
100
AcDbVertex
100
AcDb2dVertex
10
1630.471
20
1347.474
30
0.0
42
1.000
0
SEQEND
5
605
100
AcDbEntity
  8
0-01-a
0
POLYLINE
5
606
100
AcDbEntity
  8
0-01-a
6
CONTINUOUS
62
6
100
AcDb2dPolyline
66
1
10
0
20
0
70
1
40
3.200
41
3.200
0
VERTEX
5
607
100
AcDbEntity
  8
0-01-a
6
CONTINUOUS
62
6
100
AcDbVertex
100
AcDb2dVertex
10
1627.271
20
1312.474
30
0.0
42
1.000
0
VERTEX
5
608
100
AcDbEntity
  8
0-01-a
6
CONTINUOUS
62
6
100
AcDbVertex
100
AcDb2dVertex
10
1630.471
20
1312.474
30
0.0
42
1.000
0
SEQEND
5
609
100
AcDbEntity
  8
0-01-a
0
LINE
5
60a
100
AcDbEntity
8
0-01-a
6
CONTINUOUS
62
7
100
AcDbLine
10
1870.655334761796
20
1377.474327263182
30
0.0
11
1870.655334761796
21
1312.474327263182
31
0.0
0
POLYLINE
5
60b
100
AcDbEntity
  8
0-01-a
6
CONTINUOUS
62
6
100
AcDb2dPolyline
66
1
10
0
20
0
70
1
40
3.200
41
3.200
0
VERTEX
5
60c
100
AcDbEntity
  8
0-01-a
6
CONTINUOUS
62
6
100
AcDbVertex
100
AcDb2dVertex
10
1869.055
20
1377.474
30
0.0
42
1.000
0
VERTEX
5
60d
100
AcDbEntity
  8
0-01-a
6
CONTINUOUS
62
6
100
AcDbVertex
100
AcDb2dVertex
10
1872.255
20
1377.474
30
0.0
42
1.000
0
SEQEND
5
60e
100
AcDbEntity
  8
0-01-a
0
POLYLINE
5
60f
100
AcDbEntity
  8
0-01-a
6
CONTINUOUS
62
6
100
AcDb2dPolyline
66
1
10
0
20
0
70
1
40
3.200
41
3.200
0
VERTEX
5
610
100
AcDbEntity
  8
0-01-a
6
CONTINUOUS
62
6
100
AcDbVertex
100
AcDb2dVertex
10
1869.055
20
1312.474
30
0.0
42
1.000
0
VERTEX
5
611
100
AcDbEntity
  8
0-01-a
6
CONTINUOUS
62
6
100
AcDbVertex
100
AcDb2dVertex
10
1872.255
20
1312.474
30
0.0
42
1.000
0
SEQEND
5
612
100
AcDbEntity
  8
0-01-a
0
LINE
5
613
100
AcDbEntity
8
0-01-a
6
CONTINUOUS
62
7
100
AcDbLine
10
1628.870892390883
20
1347.474327263182
30
0.0
11
1628.870892390883
21
1257.197275785434
31
0.0
0
ARC
5
614
100
AcDbEntity
8
0-01-a
6
CONTINUOUS
62
2
100
AcDbCircle
10
1491.211462684769
20
1315.949025656249
30
0.0
40
49.866280216000
100
AcDbArc
50
180.000000000000
51
270.000000000000
0
ARC
5
615
100
AcDbEntity
8
0-01-a
6
CONTINUOUS
62
2
100
AcDbCircle
10
1491.211462684769
20
1315.949025656249
30
0.0
40
40.000000000000
100
AcDbArc
50
180.000000000000
51
270.000000000000
0
LINE
5
616
100
AcDbEntity
8
0-01-a
6
CONTINUOUS
62
2
100
AcDbLine
10
1359.321726940854
20
1355.474327263182
30
0.0
11
1384.321726940854
21
1355.474327263182
31
0.0
0
LINE
5
617
100
AcDbEntity
8
0-01-a
6
CONTINUOUS
62
7
100
AcDbLine
10
1282.778478207375
20
1312.474327263182
30
0.0
11
1371.821726940854
21
1312.474327263182
31
0.0
0
LINE
5
618
100
AcDbEntity
8
0-01-a
6
CONTINUOUS
62
7
100
AcDbLine
10
1282.778478207375
20
1375.474327263182
30
0.0
11
1371.821726940854
21
1375.474327263182
31
0.0
0
ARC
5
619
100
AcDbEntity
8
0-01-a
6
CONTINUOUS
62
2
100
AcDbCircle
10
1371.821726940854
20
1375.474327263182
30
0.0
40
5.000000000000
100
AcDbArc
50
210.000000000000
51
226.030271735498
0
LINE
5
61a
100
AcDbEntity
8
0-01-a
6
CONTINUOUS
62
7
100
AcDbLine
10
1331.821726940854
20
1236.147786649925
30
0.0
11
1331.821726940854
21
1375.474327263182
31
0.0
0
LINE
5
61b
100
AcDbEntity
8
0-01-a
6
CONTINUOUS
62
7
100
AcDbLine
10
1371.821726940854
20
1236.147786649925
30
0.0
11
1371.821726940854
21
1375.474327263182
31
0.0
0
LINE
5
61c
100
AcDbEntity
8
0-01-a
6
CONTINUOUS
62
7
100
AcDbLine
10
1331.821726940854
20
1236.147786649925
30
0.0
11
1371.821726940854
21
1236.147786649925
31
0.0
0
POLYLINE
5
61d
100
AcDbEntity
  8
0-01-a
6
CONTINUOUS
62
6
100
AcDb2dPolyline
66
1
10
0
20
0
70
1
40
3.200
41
3.200
0
VERTEX
5
61e
100
AcDbEntity
  8
0-01-a
6
CONTINUOUS
62
6
100
AcDbVertex
100
AcDb2dVertex
10
1330.222
20
1236.148
30
0.0
42
1.000
0
VERTEX
5
61f
100
AcDbEntity
  8
0-01-a
6
CONTINUOUS
62
6
100
AcDbVertex
100
AcDb2dVertex
10
1333.422
20
1236.148
30
0.0
42
1.000
0
SEQEND
5
620
100
AcDbEntity
  8
0-01-a
0
POLYLINE
5
621
100
AcDbEntity
  8
0-01-a
6
CONTINUOUS
62
6
100
AcDb2dPolyline
66
1
10
0
20
0
70
1
40
3.200
41
3.200
0
VERTEX
5
622
100
AcDbEntity
  8
0-01-a
6
CONTINUOUS
62
6
100
AcDbVertex
100
AcDb2dVertex
10
1370.222
20
1236.148
30
0.0
42
1.000
0
VERTEX
5
623
100
AcDbEntity
  8
0-01-a
6
CONTINUOUS
62
6
100
AcDbVertex
100
AcDb2dVertex
10
1373.422
20
1236.148
30
0.0
42
1.000
0
SEQEND
5
624
100
AcDbEntity
  8
0-01-a
0
LINE
5
625
100
AcDbEntity
8
0-01-a
6
CONTINUOUS
62
7
100
AcDbLine
10
1282.778478207375
20
1375.474327263182
30
0.0
11
1282.778478207375
21
1312.474327263182
31
0.0
0
POLYLINE
5
626
100
AcDbEntity
  8
0-01-a
6
CONTINUOUS
62
6
100
AcDb2dPolyline
66
1
10
0
20
0
70
1
40
3.200
41
3.200
0
VERTEX
5
627
100
AcDbEntity
  8
0-01-a
6
CONTINUOUS
62
6
100
AcDbVertex
100
AcDb2dVertex
10
1281.178
20
1375.474
30
0.0
42
1.000
0
VERTEX
5
628
100
AcDbEntity
  8
0-01-a
6
CONTINUOUS
62
6
100
AcDbVertex
100
AcDb2dVertex
10
1284.378
20
1375.474
30
0.0
42
1.000
0
SEQEND
5
629
100
AcDbEntity
  8
0-01-a
0
POLYLINE
5
62a
100
AcDbEntity
  8
0-01-a
6
CONTINUOUS
62
6
100
AcDb2dPolyline
66
1
10
0
20
0
70
1
40
3.200
41
3.200
0
VERTEX
5
62b
100
AcDbEntity
  8
0-01-a
6
CONTINUOUS
62
6
100
AcDbVertex
100
AcDb2dVertex
10
1281.178
20
1312.474
30
0.0
42
1.000
0
VERTEX
5
62c
100
AcDbEntity
  8
0-01-a
6
CONTINUOUS
62
6
100
AcDbVertex
100
AcDb2dVertex
10
1284.378
20
1312.474
30
0.0
42
1.000
0
SEQEND
5
62d
100
AcDbEntity
  8
0-01-a
0
ARC
5
62e
100
AcDbEntity
8
0-01-a
6
CONTINUOUS
62
2
100
AcDbCircle
10
1371.821726940854
20
1375.474327263182
30
0.0
40
5.000000000000
100
AcDbArc
50
103.280766414502
51
270.000000000000
0
POLYLINE
5
62f
100
AcDbEntity
8
0-01-a
6
CONTINUOUS
62
  2
100
AcDb2dPolyline
66
1
10
0.0
20
0.0
30
0.0
70
0
0
VERTEX
5
630
100
AcDbEntity
8
0-01-a
6
CONTINUOUS
62
  2
100
AcDbVertex
100
AcDb2dVertex
10
1359.321726940854
20
1355.474327263182
30
0.0
0
VERTEX
5
631
100
AcDbEntity
8
0-01-a
6
CONTINUOUS
62
  2
100
AcDbVertex
100
AcDb2dVertex
10
1359.321726940854
20
1395.474327263182
30
0.0
0
VERTEX
5
632
100
AcDbEntity
8
0-01-a
6
CONTINUOUS
62
  2
100
AcDbVertex
100
AcDb2dVertex
10
1384.321726940854
20
1395.474327263182
30
0.0
0
SEQEND
5
633
100
AcDbEntity
8
0-01-a
0
LINE
5
634
100
AcDbEntity
8
0-01-a
6
CONTINUOUS
62
2
100
AcDbLine
10
1429.629453716230
20
1352.274302495123
30
0.0
11
1423.145157700710
21
1358.758598510644
31
0.0
0
ARC
5
635
100
AcDbEntity
8
0-01-a
6
CONTINUOUS
62
2
100
AcDbCircle
10
1401.345182468768
20
1323.990031247662
30
0.0
40
40.000000000000
100
AcDbArc
50
0.000000000000
51
45.000000000000
0
LINE
5
636
100
AcDbEntity
8
0-01-a
6
CONTINUOUS
62
2
100
AcDbLine
10
1394.860886453248
20
1370.474327263182
30
0.0
11
1371.821726940854
21
1370.474327263182
31
0.0
0
ARC
5
637
100
AcDbEntity
8
0-01-a
6
CONTINUOUS
62
2
100
AcDbCircle
10
1394.860886453248
20
1330.474327263182
30
0.0
40
40.000000000000
100
AcDbArc
50
45.000000000000
51
90.000000000000
0
LINE
5
638
100
AcDbEntity
8
0-01-a
6
CONTINUOUS
62
2
100
AcDbLine
10
1370.673111748822
20
1380.340607479182
30
0.0
11
1394.860886453248
21
1380.340607479182
31
0.0
0
ARC
5
639
100
AcDbEntity
8
0-01-a
6
CONTINUOUS
62
2
100
AcDbCircle
10
1394.860886453248
20
1330.474327263182
30
0.0
40
49.866280216000
100
AcDbArc
50
45.000000000000
51
90.000000000000
0
LINE
5
63a
100
AcDbEntity
8
0-01-a
6
CONTINUOUS
62
2
100
AcDbLine
10
1430.121671346530
20
1365.735112156464
30
0.0
11
1436.605967362051
21
1359.250816140944
31
0.0
0
ARC
5
63b
100
AcDbEntity
8
0-01-a
6
CONTINUOUS
62
2
100
AcDbCircle
10
1401.345182468768
20
1323.990031247662
30
0.0
40
49.866280216000
100
AcDbArc
50
0.000000000000
51
45.000000000000
0
LINE
5
63c
100
AcDbEntity
8
0-01-a
6
CONTINUOUS
62
2
100
AcDbLine
10
1441.345182468768
20
1323.990031247662
30
0.0
11
1441.345182468768
21
1315.949025656249
31
0.0
0
LINE
5
63d
100
AcDbEntity
8
0-01-a
6
CONTINUOUS
62
2
100
AcDbLine
10
1451.211462684769
20
1315.949025656249
30
0.0
11
1451.211462684769
21
1323.990031247662
31
0.0
0
LINE
5
63e
100
AcDbEntity
8
0-01-a
6
CONTINUOUS
62
2
100
AcDbLine
10
1384.321726940854
20
1355.474327263182
30
0.0
11
1384.321726940854
21
1370.474327263182
31
0.0
0
LINE
5
63f
100
AcDbEntity
8
0-01-a
6
CONTINUOUS
62
2
100
AcDbLine
10
1384.321726940854
20
1380.340607479182
30
0.0
11
1384.321726940854
21
1395.474327263182
31
0.0
0
LINE
5
640
100
AcDbEntity
8
0-01-a
6
CONTINUOUS
62
2
100
AcDbLine
10
1331.821726940854
20
1312.474327263182
30
0.0
11
1441.466388821542
21
1312.474327263182
31
0.0
0
LINE
5
641
100
AcDbEntity
8
0-01-a
6
CONTINUOUS
62
2
100
AcDbLine
10
1451.362667582818
20
1312.474327263182
30
0.0
11
1929.821726940857
21
1312.474327263182
31
0.0
0
LINE
5
642
100
AcDbEntity
8
0-01-a
6
CONTINUOUS
62
2
100
AcDbLine
10
1557.398852842891
20
1295.681586088248
30
0.0
11
1557.398852842891
21
1246.350185008248
31
0.0
0
LINE
5
643
100
AcDbEntity
8
0-01-a
6
CONTINUOUS
62
2
100
AcDbLine
10
1551.960297784491
20
1295.681586088248
30
0.0
11
1551.960297784491
21
1246.350185008248
31
0.0
0
LINE
5
644
100
AcDbEntity
8
0-01-a
6
CONTINUOUS
62
2
100
AcDbLine
10
1491.211462684769
20
1275.949025656249
30
0.0
11
1551.960297784491
21
1275.949025656249
31
0.0
0
LINE
5
645
100
AcDbEntity
8
0-01-a
6
CONTINUOUS
62
2
100
AcDbLine
10
1491.211462684769
20
1266.082745440249
30
0.0
11
1551.960297784491
21
1266.082745440249
31
0.0
0
POLYLINE
5
646
100
AcDbEntity
8
0-01-a
6
CONTINUOUS
62
  7
100
AcDb2dPolyline
66
1
10
0.0
20
0.0
30
0.0
70
0
0
VERTEX
5
647
100
AcDbEntity
8
0-01-a
6
CONTINUOUS
62
  7
100
AcDbVertex
100
AcDb2dVertex
10
1445.359273219790
20
1359.659821748535
30
0.0
0
VERTEX
5
648
100
AcDbEntity
8
0-01-a
6
CONTINUOUS
62
  7
100
AcDbVertex
100
AcDb2dVertex
10
1497.633509545466
20
1450.201454991467
30
0.0
0
VERTEX
5
649
100
AcDbEntity
8
0-01-a
6
CONTINUOUS
62
  7
100
AcDbVertex
100
AcDb2dVertex
10
1497.633509545466
20
1672.569702963514
30
0.0
0
SEQEND
5
64a
100
AcDbEntity
8
0-01-a
0
LINE
5
64b
100
AcDbEntity
8
0-01-a
6
CONTINUOUS
62
2
100
AcDbLine
10
1331.821726940854
20
1402.474327263182
30
0.0
11
1929.821726940857
21
1402.474327263182
31
0.0
0
POLYLINE
5
64c
100
AcDbEntity
  8
0-01-a
6
CONTINUOUS
62
6
100
AcDb2dPolyline
66
1
10
0
20
0
70
1
40
3.200
41
3.200
0
VERTEX
5
64d
100
AcDbEntity
  8
0-01-a
6
CONTINUOUS
62
6
100
AcDbVertex
100
AcDb2dVertex
10
1928.222
20
1555.671
30
0.0
42
1.000
0
VERTEX
5
64e
100
AcDbEntity
  8
0-01-a
6
CONTINUOUS
62
6
100
AcDbVertex
100
AcDb2dVertex
10
1931.422
20
1555.671
30
0.0
42
1.000
0
SEQEND
5
64f
100
AcDbEntity
  8
0-01-a
0
POLYLINE
5
650
100
AcDbEntity
  8
0-01-a
6
CONTINUOUS
62
6
100
AcDb2dPolyline
66
1
10
0
20
0
70
1
40
3.200
41
3.200
0
VERTEX
5
651
100
AcDbEntity
  8
0-01-a
6
CONTINUOUS
62
6
100
AcDbVertex
100
AcDb2dVertex
10
1928.222
20
1611.942
30
0.0
42
1.000
0
VERTEX
5
652
100
AcDbEntity
  8
0-01-a
6
CONTINUOUS
62
6
100
AcDbVertex
100
AcDb2dVertex
10
1931.422
20
1611.942
30
0.0
42
1.000
0
SEQEND
5
653
100
AcDbEntity
  8
0-01-a
0
LINE
5
654
100
AcDbEntity
8
0-01-a
6
CONTINUOUS
62
7
100
AcDbLine
10
1929.821726940857
20
1555.671062140735
30
0.0
11
1929.821726940857
21
1355.745843126182
31
0.0
0
LINE
5
655
100
AcDbEntity
8
0-01-a
6
CONTINUOUS
62
7
100
AcDbLine
10
1929.821726940857
20
1611.941530740301
30
0.0
11
1929.821726940857
21
1312.474327263182
31
0.0
0
LINE
5
656
100
AcDbEntity
8
0-01-a
6
CONTINUOUS
62
7
100
AcDbLine
10
1703.821726940857
20
1611.941530740301
30
0.0
11
1703.821726940857
21
1325.745843126182
31
0.0
0
LINE
5
657
100
AcDbEntity
8
0-01-a
6
CONTINUOUS
62
7
100
AcDbLine
10
1703.821726940857
20
1611.941530740301
30
0.0
11
1929.821726940857
21
1611.941530740301
31
0.0
0
POLYLINE
5
658
100
AcDbEntity
  8
0-01-a
6
CONTINUOUS
62
6
100
AcDb2dPolyline
66
1
10
0
20
0
70
1
40
3.200
41
3.200
0
VERTEX
5
659
100
AcDbEntity
  8
0-01-a
6
CONTINUOUS
62
6
100
AcDbVertex
100
AcDb2dVertex
10
1702.222
20
1611.942
30
0.0
42
1.000
0
VERTEX
5
65a
100
AcDbEntity
  8
0-01-a
6
CONTINUOUS
62
6
100
AcDbVertex
100
AcDb2dVertex
10
1705.422
20
1611.942
30
0.0
42
1.000
0
SEQEND
5
65b
100
AcDbEntity
  8
0-01-a
0
LINE
5
65c
100
AcDbEntity
8
0-01-a
6
CONTINUOUS
62
2
100
AcDbLine
10
1363.396434595570
20
417.908267208002
30
0.0
11
1363.396434595570
21
948.908267210248
31
0.0
0
LINE
5
65d
100
AcDbEntity
8
0-01-a
6
CONTINUOUS
62
2
100
AcDbLine
10
1340.396434595570
20
948.908267210248
30
0.0
11
1340.396434595570
21
1062.908267209283
31
0.0
0
LINE
5
65e
100
AcDbEntity
8
0-01-a
6
CONTINUOUS
62
2
100
AcDbLine
10
1340.396434595570
20
948.908267210248
30
0.0
11
1393.396434595570
21
948.908267210248
31
0.0
0
TEXT
5
65f
100
AcDbEntity
8
0-01-a
62
7
100
AcDbText
10
1303.184
20
560.207
30
0.0
40
26.928
41
0.637
50
0.000
1
30
72
1
11
1321.184
21
557.215
31
0.0
100
AcDbText
73
1
0
LINE
5
660
100
AcDbEntity
8
0-01-a
6
CONTINUOUS
62
4
100
AcDbLine
10
1413.396434595570
20
936.058456659498
30
0.0
11
1913.396434595570
21
936.058456659498
31
0.0
0
POLYLINE
5
661
100
AcDbEntity
  8
0-01-a
6
CONTINUOUS
62
4
100
AcDb2dPolyline
66
1
10
0
20
0
70
1
40
3.200
41
3.200
0
VERTEX
5
662
100
AcDbEntity
  8
0-01-a
6
CONTINUOUS
62
4
100
AcDbVertex
100
AcDb2dVertex
10
1411.796
20
936.058
30
0.0
42
1.000
0
VERTEX
5
663
100
AcDbEntity
  8
0-01-a
6
CONTINUOUS
62
4
100
AcDbVertex
100
AcDb2dVertex
10
1414.996
20
936.058
30
0.0
42
1.000
0
SEQEND
5
664
100
AcDbEntity
  8
0-01-a
0
POLYLINE
5
665
100
AcDbEntity
  8
0-01-a
6
CONTINUOUS
62
4
100
AcDb2dPolyline
66
1
10
0
20
0
70
1
40
3.200
41
3.200
0
VERTEX
5
666
100
AcDbEntity
  8
0-01-a
6
CONTINUOUS
62
4
100
AcDbVertex
100
AcDb2dVertex
10
1911.796
20
936.058
30
0.0
42
1.000
0
VERTEX
5
667
100
AcDbEntity
  8
0-01-a
6
CONTINUOUS
62
4
100
AcDbVertex
100
AcDb2dVertex
10
1914.996
20
936.058
30
0.0
42
1.000
0
SEQEND
5
668
100
AcDbEntity
  8
0-01-a
0
TEXT
5
669
100
AcDbEntity
8
0-01-a
62
7
100
AcDbText
10
1638.676
20
944.970
30
0.0
40
26.928
41
0.651
50
0.000
1
500
72
1
11
1665.676
21
941.978
31
0.0
100
AcDbText
73
1
0
LINE
5
66a
100
AcDbEntity
8
0-01-a
6
CONTINUOUS
62
4
100
AcDbLine
10
1517.823878679636
20
987.908267209283
30
0.0
11
1517.823878679636
21
1067.908267209283
31
0.0
0
POLYLINE
5
66b
100
AcDbEntity
  8
0-01-a
6
CONTINUOUS
62
4
100
AcDb2dPolyline
66
1
10
0
20
0
70
1
40
3.200
41
3.200
0
VERTEX
5
66c
100
AcDbEntity
  8
0-01-a
6
CONTINUOUS
62
4
100
AcDbVertex
100
AcDb2dVertex
10
1516.224
20
987.908
30
0.0
42
1.000
0
VERTEX
5
66d
100
AcDbEntity
  8
0-01-a
6
CONTINUOUS
62
4
100
AcDbVertex
100
AcDb2dVertex
10
1519.424
20
987.908
30
0.0
42
1.000
0
SEQEND
5
66e
100
AcDbEntity
  8
0-01-a
0
POLYLINE
5
66f
100
AcDbEntity
  8
0-01-a
6
CONTINUOUS
62
4
100
AcDb2dPolyline
66
1
10
0
20
0
70
1
40
3.200
41
3.200
0
VERTEX
5
670
100
AcDbEntity
  8
0-01-a
6
CONTINUOUS
62
4
100
AcDbVertex
100
AcDb2dVertex
10
1516.224
20
1067.908
30
0.0
42
1.000
0
VERTEX
5
671
100
AcDbEntity
  8
0-01-a
6
CONTINUOUS
62
4
100
AcDbVertex
100
AcDb2dVertex
10
1519.424
20
1067.908
30
0.0
42
1.000
0
SEQEND
5
672
100
AcDbEntity
  8
0-01-a
0
TEXT
5
673
100
AcDbEntity
8
0-01-a
62
7
100
AcDbText
10
1508.912
20
1012.188
30
0.0
40
26.928
41
0.621
50
90.000
1
80
72
1
11
1511.904
21
1030.188
31
0.0
100
AcDbText
73
1
0
LINE
5
674
100
AcDbEntity
8
0-01-a
6
CONTINUOUS
62
4
100
AcDbLine
10
1393.396434595570
20
1121.580675459175
30
0.0
11
1340.396434595570
21
1121.580675459175
31
0.0
0
POLYLINE
5
675
100
AcDbEntity
  8
0-01-a
6
CONTINUOUS
62
4
100
AcDb2dPolyline
66
1
10
0
20
0
70
1
40
3.200
41
3.200
0
VERTEX
5
676
100
AcDbEntity
  8
0-01-a
6
CONTINUOUS
62
4
100
AcDbVertex
100
AcDb2dVertex
10
1391.796
20
1121.581
30
0.0
42
1.000
0
VERTEX
5
677
100
AcDbEntity
  8
0-01-a
6
CONTINUOUS
62
4
100
AcDbVertex
100
AcDb2dVertex
10
1394.996
20
1121.581
30
0.0
42
1.000
0
SEQEND
5
678
100
AcDbEntity
  8
0-01-a
0
POLYLINE
5
679
100
AcDbEntity
  8
0-01-a
6
CONTINUOUS
62
4
100
AcDb2dPolyline
66
1
10
0
20
0
70
1
40
3.200
41
3.200
0
VERTEX
5
67a
100
AcDbEntity
  8
0-01-a
6
CONTINUOUS
62
4
100
AcDbVertex
100
AcDb2dVertex
10
1338.796
20
1121.581
30
0.0
42
1.000
0
VERTEX
5
67b
100
AcDbEntity
  8
0-01-a
6
CONTINUOUS
62
4
100
AcDbVertex
100
AcDb2dVertex
10
1341.996
20
1121.581
30
0.0
42
1.000
0
SEQEND
5
67c
100
AcDbEntity
  8
0-01-a
0
TEXT
5
67d
100
AcDbEntity
8
0-01-a
62
7
100
AcDbText
10
1351.176
20
1130.493
30
0.0
40
26.928
41
0.572
50
0.000
1
53
72
1
11
1369.176
21
1127.501
31
0.0
100
AcDbText
73
1
0
LINE
5
67e
100
AcDbEntity
8
0-01-a
6
CONTINUOUS
62
4
100
AcDbLine
10
1340.396434595570
20
1177.104846587143
30
0.0
11
1913.396434595570
21
1177.104846587143
31
0.0
0
POLYLINE
5
67f
100
AcDbEntity
  8
0-01-a
6
CONTINUOUS
62
4
100
AcDb2dPolyline
66
1
10
0
20
0
70
1
40
3.200
41
3.200
0
VERTEX
5
680
100
AcDbEntity
  8
0-01-a
6
CONTINUOUS
62
4
100
AcDbVertex
100
AcDb2dVertex
10
1338.796
20
1177.105
30
0.0
42
1.000
0
VERTEX
5
681
100
AcDbEntity
  8
0-01-a
6
CONTINUOUS
62
4
100
AcDbVertex
100
AcDb2dVertex
10
1341.996
20
1177.105
30
0.0
42
1.000
0
SEQEND
5
682
100
AcDbEntity
  8
0-01-a
0
POLYLINE
5
683
100
AcDbEntity
  8
0-01-a
6
CONTINUOUS
62
4
100
AcDb2dPolyline
66
1
10
0
20
0
70
1
40
3.200
41
3.200
0
VERTEX
5
684
100
AcDbEntity
  8
0-01-a
6
CONTINUOUS
62
4
100
AcDbVertex
100
AcDb2dVertex
10
1911.796
20
1177.105
30
0.0
42
1.000
0
VERTEX
5
685
100
AcDbEntity
  8
0-01-a
6
CONTINUOUS
62
4
100
AcDbVertex
100
AcDb2dVertex
10
1914.996
20
1177.105
30
0.0
42
1.000
0
SEQEND
5
686
100
AcDbEntity
  8
0-01-a
0
TEXT
5
687
100
AcDbEntity
8
0-01-a
62
7
100
AcDbText
10
1602.176
20
1186.017
30
0.0
40
26.928
41
0.584
50
0.000
1
573
72
1
11
1629.176
21
1183.025
31
0.0
100
AcDbText
73
1
0
LINE
5
688
100
AcDbEntity
8
0-01-a
6
CONTINUOUS
62
4
100
AcDbLine
10
2040.849776597053
20
1067.908267209283
30
0.0
11
2040.849776597053
21
254.908267206721
31
0.0
0
POLYLINE
5
689
100
AcDbEntity
  8
0-01-a
6
CONTINUOUS
62
4
100
AcDb2dPolyline
66
1
10
0
20
0
70
1
40
3.200
41
3.200
0
VERTEX
5
68a
100
AcDbEntity
  8
0-01-a
6
CONTINUOUS
62
4
100
AcDbVertex
100
AcDb2dVertex
10
2039.250
20
1067.908
30
0.0
42
1.000
0
VERTEX
5
68b
100
AcDbEntity
  8
0-01-a
6
CONTINUOUS
62
4
100
AcDbVertex
100
AcDb2dVertex
10
2042.450
20
1067.908
30
0.0
42
1.000
0
SEQEND
5
68c
100
AcDbEntity
  8
0-01-a
0
POLYLINE
5
68d
100
AcDbEntity
  8
0-01-a
6
CONTINUOUS
62
4
100
AcDb2dPolyline
66
1
10
0
20
0
70
1
40
3.200
41
3.200
0
VERTEX
5
68e
100
AcDbEntity
  8
0-01-a
6
CONTINUOUS
62
4
100
AcDbVertex
100
AcDb2dVertex
10
2039.250
20
254.908
30
0.0
42
1.000
0
VERTEX
5
68f
100
AcDbEntity
  8
0-01-a
6
CONTINUOUS
62
4
100
AcDbVertex
100
AcDb2dVertex
10
2042.450
20
254.908
30
0.0
42
1.000
0
SEQEND
5
690
100
AcDbEntity
  8
0-01-a
0
TEXT
5
691
100
AcDbEntity
8
0-01-a
62
7
100
AcDbText
10
2031.938
20
636.688
30
0.0
40
26.928
41
0.658
50
90.000
1
813
72
1
11
2034.930
21
663.688
31
0.0
100
AcDbText
73
1
0
LINE
5
692
100
AcDbEntity
8
0-01-a
6
CONTINUOUS
62
4
100
AcDbLine
10
1913.396434595570
20
186.536973358258
30
0.0
11
1860.396434595570
21
186.536973358258
31
0.0
0
TEXT
5
693
100
AcDbEntity
8
0-01-a
62
4
100
AcDbText
10
1871.176
20
195.449
30
0.0
40
26.928
41
0.572
50
0.000
1
53
72
1
11
1889.176
21
192.457
31
0.0
100
AcDbText
73
1
0
POLYLINE
5
694
100
AcDbEntity
  8
0-01-a
6
CONTINUOUS
62
4
100
AcDb2dPolyline
66
1
10
0
20
0
70
1
40
3.200
41
3.200
0
VERTEX
5
695
100
AcDbEntity
  8
0-01-a
6
CONTINUOUS
62
4
100
AcDbVertex
100
AcDb2dVertex
10
1911.796
20
186.537
30
0.0
42
1.000
0
VERTEX
5
696
100
AcDbEntity
  8
0-01-a
6
CONTINUOUS
62
4
100
AcDbVertex
100
AcDb2dVertex
10
1914.996
20
186.537
30
0.0
42
1.000
0
SEQEND
5
697
100
AcDbEntity
  8
0-01-a
0
POLYLINE
5
698
100
AcDbEntity
  8
0-01-a
6
CONTINUOUS
62
4
100
AcDb2dPolyline
66
1
10
0
20
0
70
1
40
3.200
41
3.200
0
VERTEX
5
699
100
AcDbEntity
  8
0-01-a
6
CONTINUOUS
62
4
100
AcDbVertex
100
AcDb2dVertex
10
1858.796
20
186.537
30
0.0
42
1.000
0
VERTEX
5
69a
100
AcDbEntity
  8
0-01-a
6
CONTINUOUS
62
4
100
AcDbVertex
100
AcDb2dVertex
10
1861.996
20
186.537
30
0.0
42
1.000
0
SEQEND
5
69b
100
AcDbEntity
  8
0-01-a
0
LINE
5
69c
100
AcDbEntity
8
0-01-a
6
CONTINUOUS
62
4
100
AcDbLine
10
1913.396434595570
20
186.536973358258
30
0.0
11
1913.396434595570
21
254.908267206721
31
0.0
0
LINE
5
69d
100
AcDbEntity
8
0-01-a
6
CONTINUOUS
62
4
100
AcDbLine
10
1860.396434595570
20
186.536973358258
30
0.0
11
1860.396434595570
21
254.908267206721
31
0.0
0
LINE
5
69e
100
AcDbEntity
8
0-01-a
6
CONTINUOUS
62
4
100
AcDbLine
10
1913.396434595570
20
144.830160476631
30
0.0
11
1913.396434595570
21
254.908267206721
31
0.0
0
TEXT
5
69f
100
AcDbEntity
8
0-01-a
62
7
100
AcDbText
10
1336.102
20
1245.560
30
0.0
40
26.928
41
0.657
50
0.000
1
40
72
1
11
1354.102
21
1242.568
31
0.0
100
AcDbText
73
1
0
TEXT
5
6a0
100
AcDbEntity
8
0-01-a
62
7
100
AcDbText
10
1273.366
20
1328.254
30
0.0
40
26.928
41
0.574
50
90.000
1
63
72
1
11
1276.358
21
1346.254
31
0.0
100
AcDbText
73
1
0
TEXT
5
6a1
100
AcDbEntity
8
0-01-a
62
7
100
AcDbText
10
1619.459
20
1264.227
30
0.0
40
26.928
41
0.572
50
90.000
1
35
72
1
11
1622.451
21
1282.227
31
0.0
100
AcDbText
73
1
0
TEXT
5
6a2
100
AcDbEntity
8
0-01-a
62
7
100
AcDbText
10
1861.243
20
1329.254
30
0.0
40
26.928
41
0.566
50
90.000
1
65
72
1
11
1864.235
21
1347.254
31
0.0
100
AcDbText
73
1
0
TEXT
5
6a3
100
AcDbEntity
8
0-01-a
62
7
100
AcDbText
10
1828.852
20
1565.083
30
0.0
40
26.928
41
0.662
50
0.000
1
153
72
1
11
1855.852
21
1562.091
31
0.0
100
AcDbText
73
1
0
TEXT
5
6a4
100
AcDbEntity
8
0-01-a
62
7
100
AcDbText
10
1792.102
20
1621.354
30
0.0
40
26.928
41
0.534
50
0.000
1
226
72
1
11
1819.102
21
1618.362
31
0.0
100
AcDbText
73
1
0
POLYLINE
5
6a5
100
AcDbEntity
8
0-01-a
6
CONTINUOUS
62
  7
100
AcDb2dPolyline
66
1
10
0.0
20
0.0
30
0.0
70
0
0
VERTEX
5
6a6
100
AcDbEntity
8
0-01-a
6
CONTINUOUS
62
  7
100
AcDbVertex
100
AcDb2dVertex
10
1776.821726940856
20
1377.474327263182
30
0.0
0
VERTEX
5
6a7
100
AcDbEntity
8
0-01-a
6
CONTINUOUS
62
  7
100
AcDbVertex
100
AcDb2dVertex
10
1852.538706889579
20
1246.328670996320
30
0.0
0
VERTEX
5
6a8
100
AcDbEntity
8
0-01-a
6
CONTINUOUS
62
  7
100
AcDbVertex
100
AcDb2dVertex
10
2001.636061216222
20
1246.328670996320
30
0.0
0
SEQEND
5
6a9
100
AcDbEntity
8
0-01-a
0
CIRCLE
5
6aa
100
AcDbEntity
8
0-01-a
6
CONTINUOUS
62
2
100
AcDbCircle
10
1776.821726940857
20
1377.474327263182
30
0.0
40
15.000000000000
0
LINE
5
6ab
100
AcDbEntity
8
0-01-a
6
CONTINUOUS
62
7
100
AcDbLine
10
1798.550211077857
20
1377.474327263182
30
0.0
11
1755.093242803857
21
1377.474327263182
31
0.0
0
LINE
5
6ac
100
AcDbEntity
8
0-01-a
6
CONTINUOUS
62
7
100
AcDbLine
10
1870.655334761796
20
1312.474327263182
30
0.0
11
1798.550211077857
21
1312.474327263182
31
0.0
0
LINE
5
6ad
100
AcDbEntity
8
0-01-a
6
CONTINUOUS
62
7
100
AcDbLine
10
1870.655334761796
20
1377.474327263182
30
0.0
11
1798.550211077857
21
1377.474327263182
31
0.0
0
LINE
5
6ae
100
AcDbEntity
8
0-01-a
6
CONTINUOUS
62
7
100
AcDbLine
10
1776.821726940857
20
1400.202811400182
30
0.0
11
1776.821726940857
21
1355.745843126182
31
0.0
0
LINE
5
6af
100
AcDbEntity
8
0-01-a
6
CONTINUOUS
62
7
100
AcDbLine
10
1776.821726940857
20
1555.671062140735
30
0.0
11
1776.821726940857
21
1355.745843126182
31
0.0
0
LINE
5
6b0
100
AcDbEntity
8
0-01-a
6
CONTINUOUS
62
7
100
AcDbLine
10
1776.821726940857
20
1555.671062140735
30
0.0
11
1929.821726940857
21
1555.671062140735
31
0.0
0
POLYLINE
5
6b1
100
AcDbEntity
  8
0-01-a
6
CONTINUOUS
62
6
100
AcDb2dPolyline
66
1
10
0
20
0
70
1
40
3.200
41
3.200
0
VERTEX
5
6b2
100
AcDbEntity
  8
0-01-a
6
CONTINUOUS
62
6
100
AcDbVertex
100
AcDb2dVertex
10
1775.222
20
1555.671
30
0.0
42
1.000
0
VERTEX
5
6b3
100
AcDbEntity
  8
0-01-a
6
CONTINUOUS
62
6
100
AcDbVertex
100
AcDb2dVertex
10
1778.422
20
1555.671
30
0.0
42
1.000
0
SEQEND
5
6b4
100
AcDbEntity
  8
0-01-a
0
LINE
5
6b5
100
AcDbEntity
8
0-01-a
6
CONTINUOUS
62
2
100
AcDbLine
10
1929.821726940857
20
1312.474327263182
30
0.0
11
1929.821726940857
21
2125.474327263182
31
0.0
0
LINE
5
6b6
100
AcDbEntity
8
0-01-a
6
CONTINUOUS
62
2
100
AcDbLine
10
1331.821726940854
20
2125.474327263182
30
0.0
11
1929.821726940857
21
2125.474327263182
31
0.0
0
LINE
5
6b7
100
AcDbEntity
8
0-01-a
6
CONTINUOUS
62
2
100
AcDbLine
10
1331.821726940854
20
1312.474327263182
30
0.0
11
1331.821726940854
21
2125.474327263182
31
0.0
0
ARC
5
6b8
100
AcDbEntity
8
0-01-a
6
CONTINUOUS
62
2
100
AcDbCircle
10
1401.821726940854
20
2065.474327263182
30
0.0
40
30.000000000000
100
AcDbArc
50
90.000000000000
51
180.000000000000
0
ARC
5
6b9
100
AcDbEntity
8
0-01-a
6
CONTINUOUS
62
2
100
AcDbCircle
10
1859.821726940857
20
2065.474327263182
30
0.0
40
30.000000000000
100
AcDbArc
50
0.000000000000
51
90.000000000000
0
LINE
5
6ba
100
AcDbEntity
8
0-01-a
6
CONTINUOUS
62
2
100
AcDbLine
10
1859.821726940857
20
2095.474327263181
30
0.0
11
1401.821726940854
21
2095.474327263181
31
0.0
0
LINE
5
6bb
100
AcDbEntity
8
0-01-a
6
CONTINUOUS
62
2
100
AcDbLine
10
1371.821726940854
20
2125.474327263182
30
0.0
11
1371.821726940854
21
1402.474327263182
31
0.0
0
LINE
5
6bc
100
AcDbEntity
8
0-01-a
6
CONTINUOUS
62
2
100
AcDbLine
10
1889.821726940857
20
2125.474327263182
30
0.0
11
1889.821726940857
21
1402.474327263182
31
0.0
0
LINE
5
6bd
100
AcDbEntity
8
0-01-a
6
CONTINUOUS
62
7
100
AcDbLine
10
1482.480178790411
20
868.251712286726
30
0.0
11
1513.275426701216
21
868.251712286726
31
0.0
0
TEXT
5
6be
100
AcDbEntity
8
0-01-a
62
7
100
AcDbText
10
1522.665
20
857.676
30
0.0
40
26.928
41
0.963
50
0.000
1
本体固定ビス位置
72
0
11
1521.385
21
870.764
31
0.0
100
AcDbText
73
2
0
TEXT
5
6bf
100
AcDbEntity
8
0-01-a
62
7
100
AcDbText
10
1629.813
20
810.426
30
0.0
40
26.928
41
0.963
50
0.000
1
φ４×３６
72
0
11
1628.533
21
823.514
31
0.0
100
AcDbText
73
2
0
LINE
5
6c0
100
AcDbEntity
8
0-01-a
6
CONTINUOUS
62
2
100
AcDbLine
10
1496.396434595570
20
263.908267206721
30
0.0
11
1860.396434595570
21
263.908267206721
31
0.0
0
LINE
5
6c1
100
AcDbEntity
8
0-01-a
6
CONTINUOUS
62
2
100
AcDbLine
10
1493.396434595570
20
254.908267208002
30
0.0
11
1493.396434595570
21
382.908267208002
31
0.0
0
LINE
5
6c2
100
AcDbEntity
8
0-01-a
6
CONTINUOUS
62
2
100
AcDbLine
10
1384.396434595570
20
415.908267208002
30
0.0
11
1384.396434595570
21
417.908267208002
31
0.0
0
LINE
5
6c3
100
AcDbEntity
8
0-01-a
6
CONTINUOUS
62
2
100
AcDbLine
10
1393.396434595570
20
417.908267208002
30
0.0
11
1363.396434595569
21
417.908267208002
31
0.0
0
ARC
5
6c4
100
AcDbEntity
8
0-01-a
6
CONTINUOUS
62
2
100
AcDbCircle
10
1393.396434595570
20
437.908267209283
30
0.0
40
5.000000000000
100
AcDbArc
50
270.000000000000
51
450.000000000000
0
LINE
5
6c5
100
AcDbEntity
8
0-01-a
6
CONTINUOUS
62
2
100
AcDbLine
10
1485.396434595570
20
415.908267208002
30
0.0
11
1384.396434595570
21
415.908267208002
31
0.0
0
ARC
5
6c6
100
AcDbEntity
8
0-01-a
6
CONTINUOUS
62
2
100
AcDbCircle
10
1491.396434595570
20
434.908267208002
30
0.0
40
5.000000000000
100
AcDbArc
50
0.000000000000
51
90.000000000000
0
LINE
5
6c7
100
AcDbEntity
8
0-01-a
6
CONTINUOUS
62
2
100
AcDbLine
10
1491.096434595569
20
382.908267208002
30
0.0
11
1493.396434595570
21
382.908267208002
31
0.0
0
LINE
5
6c8
100
AcDbEntity
8
0-01-a
6
CONTINUOUS
62
2
100
AcDbLine
10
1491.396434595570
20
439.908267208002
30
0.0
11
1398.396434595570
21
439.908267208002
31
0.0
0
POLYLINE
5
6c9
100
AcDbEntity
8
0-01-a
6
CONTINUOUS
62
  2
100
AcDb2dPolyline
66
1
10
0.0
20
0.0
30
0.0
70
0
0
VERTEX
5
6ca
100
AcDbEntity
8
0-01-a
6
CONTINUOUS
62
  2
100
AcDbVertex
100
AcDb2dVertex
10
1485.396434595570
20
415.908267208002
30
0.0
0
VERTEX
5
6cb
100
AcDbEntity
8
0-01-a
6
CONTINUOUS
62
  2
100
AcDbVertex
100
AcDb2dVertex
10
1490.396434595570
20
410.908267208002
30
0.0
0
VERTEX
5
6cc
100
AcDbEntity
8
0-01-a
6
CONTINUOUS
62
  2
100
AcDbVertex
100
AcDb2dVertex
10
1490.396434595570
20
375.203477877342
30
0.0
0
SEQEND
5
6cd
100
AcDbEntity
8
0-01-a
0
LINE
5
6ce
100
AcDbEntity
8
0-01-a
6
CONTINUOUS
62
2
100
AcDbLine
10
1491.096434595569
20
374.908267208002
30
0.0
11
1491.096434595569
21
382.908267208002
31
0.0
0
LINE
5
6cf
100
AcDbEntity
8
0-01-a
6
CONTINUOUS
62
2
100
AcDbLine
10
1463.396434595570
20
265.908267208002
30
0.0
11
1496.396434595570
21
265.908267208002
31
0.0
0
LINE
5
6d0
100
AcDbEntity
8
0-01-a
6
CONTINUOUS
62
2
100
AcDbLine
10
1463.698433864612
20
348.202634726563
30
0.0
11
1491.096434595569
21
374.908267208002
31
0.0
0
ARC
5
6d1
100
AcDbEntity
8
0-01-a
6
CONTINUOUS
62
2
100
AcDbCircle
10
1464.396434595570
20
347.486537680359
30
0.0
40
1.000000000000
100
AcDbArc
50
134.266821636275
51
180.000000000000
0
LINE
5
6d2
100
AcDbEntity
8
0-01-a
6
CONTINUOUS
62
2
100
AcDbLine
10
1462.998991743854
20
348.539964954266
30
0.0
11
1490.396434595570
21
375.203477877342
31
0.0
0
LINE
5
6d3
100
AcDbEntity
8
0-01-a
6
CONTINUOUS
62
2
100
AcDbLine
10
1462.696434595570
20
347.823324550305
30
0.0
11
1462.696434595570
21
303.908267206721
31
0.0
0
ARC
5
6d4
100
AcDbEntity
8
0-01-a
6
CONTINUOUS
62
2
100
AcDbCircle
10
1463.696434595570
20
347.823324550305
30
0.0
40
1.000000000000
100
AcDbArc
50
134.222201982628
51
180.000000000000
0
LINE
5
6d5
100
AcDbEntity
8
0-01-a
6
CONTINUOUS
62
2
100
AcDbLine
10
1496.396434595570
20
434.908267208002
30
0.0
11
1496.396434595570
21
263.908267206721
31
0.0
0
ARC
5
6d6
100
AcDbEntity
8
0-01-a
6
CONTINUOUS
62
2
100
AcDbCircle
10
1870.396434595570
20
329.908273271587
30
0.0
40
10.000000000000
100
AcDbArc
50
90.000000000000
51
180.000000000000
0
LINE
5
6d7
100
AcDbEntity
8
0-01-a
6
CONTINUOUS
62
2
100
AcDbLine
10
1860.396434595570
20
329.908273271587
30
0.0
11
1860.396434595570
21
254.908267208002
31
0.0
0
LINE
5
6d8
100
AcDbEntity
8
0-01-a
6
CONTINUOUS
62
2
100
AcDbLine
10
1870.396434595570
20
339.908273271587
30
0.0
11
1897.396434595570
21
339.908273271587
31
0.0
0
LINE
5
6d9
100
AcDbEntity
8
0-01-a
6
CONTINUOUS
62
2
100
AcDbLine
10
1913.396434595570
20
343.908273271587
30
0.0
11
1897.396434595570
21
339.908273271587
31
0.0
0
LINE
5
6da
100
AcDbEntity
8
0-01-a
6
CONTINUOUS
62
2
100
AcDbLine
10
1463.396434595570
20
254.908267206721
30
0.0
11
1860.396434595570
21
254.908267206721
31
0.0
0
LINE
5
6db
100
AcDbEntity
8
0-01-a
6
CONTINUOUS
62
2
100
AcDbLine
10
1463.396434595570
20
347.486537680359
30
0.0
11
1463.396434595570
21
254.908267206721
31
0.0
0
LINE
5
6dc
100
AcDbEntity
8
0-01-a
6
CONTINUOUS
62
4
100
AcDbLine
10
1463.396434595570
20
144.830160476631
30
0.0
11
1463.396434595570
21
254.908267206721
31
0.0
0
LINE
5
6dd
100
AcDbEntity
8
0-01-a
6
CONTINUOUS
62
4
100
AcDbLine
10
1463.396434595570
20
144.830160476631
30
0.0
11
1913.396434595570
21
144.830160476631
31
0.0
0
POLYLINE
5
6de
100
AcDbEntity
  8
0-01-a
6
CONTINUOUS
62
4
100
AcDb2dPolyline
66
1
10
0
20
0
70
1
40
3.200
41
3.200
0
VERTEX
5
6df
100
AcDbEntity
  8
0-01-a
6
CONTINUOUS
62
4
100
AcDbVertex
100
AcDb2dVertex
10
1461.796
20
144.830
30
0.0
42
1.000
0
VERTEX
5
6e0
100
AcDbEntity
  8
0-01-a
6
CONTINUOUS
62
4
100
AcDbVertex
100
AcDb2dVertex
10
1464.996
20
144.830
30
0.0
42
1.000
0
SEQEND
5
6e1
100
AcDbEntity
  8
0-01-a
0
POLYLINE
5
6e2
100
AcDbEntity
  8
0-01-a
6
CONTINUOUS
62
4
100
AcDb2dPolyline
66
1
10
0
20
0
70
1
40
3.200
41
3.200
0
VERTEX
5
6e3
100
AcDbEntity
  8
0-01-a
6
CONTINUOUS
62
4
100
AcDbVertex
100
AcDb2dVertex
10
1911.796
20
144.830
30
0.0
42
1.000
0
VERTEX
5
6e4
100
AcDbEntity
  8
0-01-a
6
CONTINUOUS
62
4
100
AcDbVertex
100
AcDb2dVertex
10
1914.996
20
144.830
30
0.0
42
1.000
0
SEQEND
5
6e5
100
AcDbEntity
  8
0-01-a
0
TEXT
5
6e6
100
AcDbEntity
8
0-01-a
62
7
100
AcDbText
10
1663.676
20
153.742
30
0.0
40
26.928
41
0.623
50
0.000
1
450
72
1
11
1690.676
21
150.750
31
0.0
100
AcDbText
73
1
0
LINE
5
6e7
100
AcDbEntity
8
0-01-a
6
CONTINUOUS
62
2
100
AcDbLine
10
1913.396434595570
20
343.908273271587
30
0.0
11
1913.396434595570
21
1067.908267209283
31
0.0
0
LINE
5
6e8
100
AcDbEntity
8
0-01-a
6
CONTINUOUS
62
4
100
AcDbLine
10
1913.396434595570
20
186.536973358258
30
0.0
11
1913.396434595570
21
343.908273271587
31
0.0
0
LINE
5
6e9
100
AcDbEntity
8
0-01-a
6
CONTINUOUS
62
4
100
AcDbLine
10
1981.673294668809
20
343.908273271587
30
0.0
11
1913.396434595570
21
343.908273271587
31
0.0
0
LINE
5
6ea
100
AcDbEntity
8
0-01-a
6
CONTINUOUS
62
4
100
AcDbLine
10
1981.673294668809
20
254.908267206721
30
0.0
11
1981.673294668809
21
343.908273271587
31
0.0
0
POLYLINE
5
6eb
100
AcDbEntity
  8
0-01-a
6
CONTINUOUS
62
4
100
AcDb2dPolyline
66
1
10
0
20
0
70
1
40
3.200
41
3.200
0
VERTEX
5
6ec
100
AcDbEntity
  8
0-01-a
6
CONTINUOUS
62
4
100
AcDbVertex
100
AcDb2dVertex
10
1980.073
20
254.908
30
0.0
42
1.000
0
VERTEX
5
6ed
100
AcDbEntity
  8
0-01-a
6
CONTINUOUS
62
4
100
AcDbVertex
100
AcDb2dVertex
10
1983.273
20
254.908
30
0.0
42
1.000
0
SEQEND
5
6ee
100
AcDbEntity
  8
0-01-a
0
POLYLINE
5
6ef
100
AcDbEntity
  8
0-01-a
6
CONTINUOUS
62
4
100
AcDb2dPolyline
66
1
10
0
20
0
70
1
40
3.200
41
3.200
0
VERTEX
5
6f0
100
AcDbEntity
  8
0-01-a
6
CONTINUOUS
62
4
100
AcDbVertex
100
AcDb2dVertex
10
1980.073
20
343.908
30
0.0
42
1.000
0
VERTEX
5
6f1
100
AcDbEntity
  8
0-01-a
6
CONTINUOUS
62
4
100
AcDbVertex
100
AcDb2dVertex
10
1983.273
20
343.908
30
0.0
42
1.000
0
SEQEND
5
6f2
100
AcDbEntity
  8
0-01-a
0
TEXT
5
6f3
100
AcDbEntity
8
0-01-a
62
7
100
AcDbText
10
1972.761
20
283.688
30
0.0
40
26.928
41
0.583
50
90.000
1
89
72
1
11
1975.753
21
301.688
31
0.0
100
AcDbText
73
1
0
LINE
5
6f4
100
AcDbEntity
8
0-01-a
6
CONTINUOUS
62
4
100
AcDbLine
10
1981.673294668809
20
343.908273271587
30
0.0
11
1981.673294668809
21
1067.908267209283
31
0.0
0
POLYLINE
5
6f5
100
AcDbEntity
  8
0-01-a
6
CONTINUOUS
62
4
100
AcDb2dPolyline
66
1
10
0
20
0
70
1
40
3.200
41
3.200
0
VERTEX
5
6f6
100
AcDbEntity
  8
0-01-a
6
CONTINUOUS
62
4
100
AcDbVertex
100
AcDb2dVertex
10
1980.073
20
1067.908
30
0.0
42
1.000
0
VERTEX
5
6f7
100
AcDbEntity
  8
0-01-a
6
CONTINUOUS
62
4
100
AcDbVertex
100
AcDb2dVertex
10
1983.273
20
1067.908
30
0.0
42
1.000
0
SEQEND
5
6f8
100
AcDbEntity
  8
0-01-a
0
TEXT
5
6f9
100
AcDbEntity
8
0-01-a
62
7
100
AcDbText
10
1972.761
20
681.188
30
0.0
40
26.928
41
0.578
50
90.000
1
724
72
1
11
1975.753
21
708.188
31
0.0
100
AcDbText
73
1
0
TEXT
5
6fa
100
AcDbEntity
8
0-01-a
62
7
100
AcDbText
10
2078.997
20
2217.481
30
0.0
40
26.928
41
0.963
50
0.000
1
排水ホース
72
0
11
2077.717
21
2230.569
31
0.0
100
AcDbText
73
2
0
MTEXT
5
6fb
100
AcDbEntity
8
0-01-a
62
7
100
AcDbMText
10
2078.997
20
2181.488
30
0.0
40
25.432
41
0.000
71
4
72
1
1
\W1.093;{\W0.787;L}＝{\W0.787;1.9m}
7
STANDARD
11
1.00000
21
0.00000
31
0.0
0
MTEXT
5
6fc
100
AcDbEntity
8
0-01-a
62
7
100
AcDbMText
10
2078.997
20
2130.487
30
0.0
40
25.432
41
0.000
71
4
72
1
1
\W1.093;（外径{\W0.787;22mm}）
7
STANDARD
11
1.00000
21
0.00000
31
0.0
0
TEXT
5
6fd
100
AcDbEntity
8
0-01-a
62
7
100
AcDbText
10
2078.997
20
1991.979
30
0.0
40
26.928
41
0.963
50
0.000
1
給水ホース
72
1
11
2167.717
21
2005.067
31
0.0
100
AcDbText
73
2
0
MTEXT
5
6fe
100
AcDbEntity
8
0-01-a
62
7
100
AcDbMText
10
2078.997
20
1904.985
30
0.0
40
25.432
41
0.000
71
4
72
1
1
\W1.093;（外径{\W0.787;25mm}）
7
STANDARD
11
1.00000
21
0.00000
31
0.0
0
LINE
5
6ff
100
AcDbEntity
8
0-01-a
6
CONTINUOUS
62
7
100
AcDbLine
10
2001.636061216222
20
1977.566285518421
30
0.0
11
2001.636061216222
21
1246.328670996320
31
0.0
0
LINE
5
700
100
AcDbEntity
8
0-01-a
6
CONTINUOUS
62
7
100
AcDbLine
10
2001.636061216222
20
1977.566285518421
30
0.0
11
2255.636061216222
21
1977.566285518421
31
0.0
0
LINE
5
701
100
AcDbEntity
8
0-01-a
6
CONTINUOUS
62
7
100
AcDbLine
10
1616.332690231597
20
2203.068585610333
30
0.0
11
2255.636061216222
21
2203.068585610333
31
0.0
0
LINE
5
702
100
AcDbEntity
8
0-01-a
6
CONTINUOUS
62
7
100
AcDbLine
10
1616.332690231597
20
1434.963363972442
30
0.0
11
1616.332690231597
21
2203.068585610333
31
0.0
0
POLYLINE
5
703
100
AcDbEntity
8
0-01-a
6
CONTINUOUS
62
  7
100
AcDb2dPolyline
66
1
10
0.0
20
0.0
30
0.0
70
0
0
VERTEX
5
704
100
AcDbEntity
8
0-01-a
6
CONTINUOUS
62
  7
100
AcDbVertex
100
AcDb2dVertex
10
1265.503347216684
20
2141.181257616944
30
0.0
0
VERTEX
5
705
100
AcDbEntity
8
0-01-a
6
CONTINUOUS
62
  7
100
AcDbVertex
100
AcDb2dVertex
10
1265.503347216684
20
2052.791286771463
30
0.0
0
VERTEX
5
706
100
AcDbEntity
8
0-01-a
6
CONTINUOUS
62
  7
100
AcDbVertex
100
AcDb2dVertex
10
1060.510939357731
20
2052.791286771463
30
0.0
0
VERTEX
5
707
100
AcDbEntity
8
0-01-a
6
CONTINUOUS
62
  7
100
AcDbVertex
100
AcDb2dVertex
10
1060.510939357731
20
2141.181257616944
30
0.0
0
VERTEX
5
708
100
AcDbEntity
8
0-01-a
6
CONTINUOUS
62
  7
100
AcDbVertex
100
AcDb2dVertex
10
1265.503347216684
20
2141.181257616944
30
0.0
0
SEQEND
5
709
100
AcDbEntity
8
0-01-a
0
LINE
5
70a
100
AcDbEntity
8
0-01-a
6
CONTINUOUS
62
7
100
AcDbLine
10
1060.510939357731
20
1219.370211766378
30
0.0
11
1265.503347216684
21
1219.370211766378
31
0.0
0
LINE
5
70b
100
AcDbEntity
8
0-01-a
6
CONTINUOUS
62
7
100
AcDbLine
10
1060.510939357731
20
1130.980240920897
30
0.0
11
1060.510939357731
21
1219.370211766378
31
0.0
0
LINE
5
70c
100
AcDbEntity
8
0-01-a
6
CONTINUOUS
62
7
100
AcDbLine
10
1265.503347216684
20
1130.980240920897
30
0.0
11
1060.510939357731
21
1130.980240920897
31
0.0
0
LINE
5
70d
100
AcDbEntity
8
0-01-a
6
CONTINUOUS
62
7
100
AcDbLine
10
1265.503347216684
20
1219.370211766378
30
0.0
11
1265.503347216684
21
1130.980240920897
31
0.0
0
TEXT
5
70e
100
AcDbEntity
8
0-01-a
62
3
100
AcDbText
10
1084.927
20
2080.354
30
0.0
40
40.392
41
0.999
50
0.000
1
背面図
72
1
11
1167.007
21
2100.986
31
0.0
100
AcDbText
73
2
0
TEXT
5
70f
100
AcDbEntity
8
0-01-a
62
3
100
AcDbText
10
1084.927
20
1158.543
30
0.0
40
40.392
41
0.999
50
0.000
1
側面図
72
1
11
1167.007
21
1179.175
31
0.0
100
AcDbText
73
2
0
LINE
5
710
100
AcDbEntity
8
0-01-a
6
CONTINUOUS
62
7
100
AcDbLine
10
1497.633509545466
20
1672.569702963514
30
0.0
11
1117.172071286132
21
1672.569702963514
31
0.0
0
TEXT
5
711
100
AcDbEntity
8
0-01-a
62
7
100
AcDbText
10
1124.095
20
1686.982
30
0.0
40
26.928
41
0.963
50
0.000
1
電源コード
72
1
11
1212.815
21
1700.070
31
0.0
100
AcDbText
73
2
0
MTEXT
5
712
100
AcDbEntity
8
0-01-a
62
7
100
AcDbMText
10
1213.095
20
1650.989
30
0.0
40
25.432
41
0.000
71
5
72
1
1
\W1.093;{\W0.787;L}＝{\W0.787;1.75m}
7
STANDARD
11
1.00000
21
0.00000
31
0.0
0
TEXT
5
713
100
AcDbEntity
8
F-0
62
7
100
AcDbText
10
2953.280
20
2254.245
30
0.0
40
26.928
41
0.963
50
0.000
1
記　事
72
1
11
3006.000
21
2267.333
31
0.0
100
AcDbText
73
2
0
LINE
5
714
100
AcDbEntity
8
F-0
6
CONTINUOUS
62
7
100
AcDbLine
10
2704.000000000000
20
2293.333311338683
30
0.0
11
2704.000000000000
21
2125.333311338682
31
0.0
0
LINE
5
715
100
AcDbEntity
8
F-0
6
CONTINUOUS
62
7
100
AcDbLine
10
3304.000000000000
20
2237.333311338682
30
0.0
11
2384.000000000000
21
2237.333311338682
31
0.0
0
LINE
5
716
100
AcDbEntity
8
F-0
6
CONTINUOUS
62
7
100
AcDbLine
10
3304.000000000000
20
2181.333311338682
30
0.0
11
2384.000000000000
21
2181.333311338682
31
0.0
0
LINE
5
717
100
AcDbEntity
8
F-0
6
CONTINUOUS
62
7
100
AcDbLine
10
3304.000000000000
20
2125.333311338682
30
0.0
11
2384.000000000000
21
2125.333311338682
31
0.0
0
LINE
5
718
100
AcDbEntity
8
F-0
6
CONTINUOUS
62
7
100
AcDbLine
10
2464.000000000000
20
2293.333311338683
30
0.0
11
2464.000000000000
21
2125.333311338682
31
0.0
0
LINE
5
719
100
AcDbEntity
8
F-0
6
CONTINUOUS
62
7
100
AcDbLine
10
2384.000000000000
20
2293.333311338683
30
0.0
11
2384.000000000000
21
2125.333311338682
31
0.0
0
MTEXT
5
71a
100
AcDbEntity
8
F-0
62
7
100
AcDbMText
10
2427.280
20
2213.253
30
0.0
40
25.432
41
0.000
71
5
72
1
1
\W1.093;{\fMS Gothic;①}
7
STANDARD
11
1.00000
21
0.00000
31
0.0
0
MTEXT
5
71b
100
AcDbEntity
8
F-0
62
7
100
AcDbMText
10
2427.280
20
2157.253
30
0.0
40
25.432
41
0.000
71
5
72
1
1
\W1.093;{\fMS Gothic;②}
7
STANDARD
11
1.00000
21
0.00000
31
0.0
0
TEXT
5
71c
100
AcDbEntity
8
F-0
62
7
100
AcDbText
10
2398.960
20
2271.017
30
0.0
40
20.196
41
0.999
50
0.000
1
改訂
72
1
11
2426.000
21
2281.333
31
0.0
100
AcDbText
73
2
0
TEXT
5
71d
100
AcDbEntity
8
F-0
62
7
100
AcDbText
10
2404.960
20
2243.017
30
0.0
40
20.196
41
0.781
50
0.000
1
No.
72
1
11
2425.000
21
2253.333
31
0.0
100
AcDbText
73
2
0
TEXT
5
71e
100
AcDbEntity
8
F-0
62
7
100
AcDbText
10
2533.280
20
2254.245
30
0.0
40
26.928
41
0.963
50
0.000
1
日　付
72
1
11
2586.000
21
2267.333
31
0.0
100
AcDbText
73
2
0
ELLIPSE
  5
71f
100
AcDbEntity
8
0-01-a
6
CONTINUOUS
62
7
100
AcDbEllipse
10
3098.062085023571
20
1841.055237722379
30
0.0
11
-20.890596119742
21
0.000000000000
31
0.0
210
0.0
220
0.0
230
1.0
40
0.562500000000
41
6.283185307180
42
9.424777960769
0
ELLIPSE
  5
720
100
AcDbEntity
8
0-01-a
6
CONTINUOUS
62
7
100
AcDbEllipse
10
3098.062085023571
20
1846.963096201533
30
0.0
11
-20.890596119742
21
0.000000000000
31
0.0
210
0.0
220
0.0
230
1.0
40
0.562500000000
41
6.283185307180
42
9.424777960769
0
ELLIPSE
  5
721
100
AcDbEntity
8
0-01-a
6
CONTINUOUS
62
7
100
AcDbEllipse
10
3098.062085023571
20
1852.870954680688
30
0.0
11
-20.890596119742
21
0.000000000000
31
0.0
210
0.0
220
0.0
230
1.0
40
0.562500000000
41
6.283185307180
42
9.424777960769
0
ELLIPSE
  5
722
100
AcDbEntity
8
0-01-a
6
CONTINUOUS
62
7
100
AcDbEllipse
10
3098.062085023571
20
1858.778813159842
30
0.0
11
-20.890596119742
21
0.000000000000
31
0.0
210
0.0
220
0.0
230
1.0
40
0.562500000000
41
6.283185307180
42
9.424777960769
0
LINE
5
723
100
AcDbEntity
8
0-01-a
6
CONTINUOUS
62
7
100
AcDbLine
10
3105.865002211064
20
1976.690749270725
30
0.0
11
3105.865002211064
21
1869.195162033793
31
0.0
0
ARC
5
724
100
AcDbEntity
8
0-01-a
6
CONTINUOUS
62
7
100
AcDbCircle
10
3081.821560069814
20
1870.548558693225
30
0.0
40
7.875000000000
100
AcDbArc
50
233.808551025147
51
270.000000000000
0
ARC
5
725
100
AcDbEntity
8
0-01-a
6
CONTINUOUS
62
7
100
AcDbCircle
10
2995.108013464814
20
1976.690749270725
30
0.0
40
7.875000000000
100
AcDbArc
50
90.000000000000
51
149.555682489427
0
ARC
5
726
100
AcDbEntity
8
0-01-a
6
CONTINUOUS
62
2
100
AcDbCircle
10
3009.909384473727
20
2001.874425151725
30
0.0
40
7.875000000000
100
AcDbArc
50
90.000000000000
51
149.555682489429
0
LINE
5
727
100
AcDbEntity
8
0-01-a
6
CONTINUOUS
62
2
100
AcDbLine
10
3003.120173716133
20
2005.864693600026
30
0.0
11
2988.318802707291
21
1980.681017718985
31
0.0
0
ARC
5
728
100
AcDbEntity
8
0-01-a
6
CONTINUOUS
62
2
100
AcDbCircle
10
2995.108013464814
20
1976.690749270725
30
0.0
40
7.875000000000
100
AcDbArc
50
149.555682489427
51
180.000000000000
0
LINE
5
729
100
AcDbEntity
8
0-01-a
6
CONTINUOUS
62
2
100
AcDbLine
10
2987.233013464814
20
1976.690749270725
30
0.0
11
2987.233013464814
21
1946.125805893722
31
0.0
0
ARC
5
72a
100
AcDbEntity
8
0-01-a
6
CONTINUOUS
62
2
100
AcDbCircle
10
3026.608013464814
20
1946.125805893722
30
0.0
40
39.375000000000
100
AcDbArc
50
180.000000000000
51
253.192912264270
0
LINE
5
72b
100
AcDbEntity
8
0-01-a
6
CONTINUOUS
62
2
100
AcDbLine
10
3068.348618046761
20
1892.385934371236
30
0.0
11
3015.222723580076
21
1908.432758799590
31
0.0
0
ARC
5
72c
100
AcDbEntity
8
0-01-a
6
CONTINUOUS
62
2
100
AcDbCircle
10
3066.071560069814
20
1884.847324952410
30
0.0
40
7.875000000000
100
AcDbArc
50
0.000000000000
51
73.192912264270
0
LINE
5
72d
100
AcDbEntity
8
0-01-a
6
CONTINUOUS
62
2
100
AcDbLine
10
3073.946560069814
20
1870.548558693225
30
0.0
11
3073.946560069814
21
1884.847324952410
31
0.0
0
ARC
5
72e
100
AcDbEntity
8
0-01-a
6
CONTINUOUS
62
2
100
AcDbCircle
10
3081.821560069814
20
1870.548558693225
30
0.0
40
7.875000000000
100
AcDbArc
50
180.000000000000
51
233.808551025147
0
LINE
5
72f
100
AcDbEntity
8
0-01-a
6
CONTINUOUS
62
2
100
AcDbLine
10
3077.171488903829
20
1864.193052171218
30
0.0
11
3077.171488903829
21
1835.147379243225
31
0.0
0
ELLIPSE
  5
730
100
AcDbEntity
8
0-01-a
6
CONTINUOUS
62
2
100
AcDbEllipse
10
3098.062085023571
20
1835.147379243225
30
0.0
11
-20.890596119742
21
0.000000000000
31
0.0
210
0.0
220
0.0
230
1.0
40
0.562500000000
41
6.283185307180
42
9.424777960769
0
POLYLINE
5
731
100
AcDbEntity
8
0-01-a
6
CONTINUOUS
62
  7
100
AcDb2dPolyline
66
1
10
0.0
20
0.0
30
0.0
70
0
0
VERTEX
5
732
100
AcDbEntity
8
0-01-a
6
CONTINUOUS
62
  7
100
AcDbVertex
100
AcDb2dVertex
10
2995.108013464814
20
1984.565749270725
30
0.0
0
VERTEX
5
733
100
AcDbEntity
8
0-01-a
6
CONTINUOUS
62
  7
100
AcDbVertex
100
AcDb2dVertex
10
2926.389763270083
20
1984.565749270725
30
0.0
0
VERTEX
5
734
100
AcDbEntity
8
0-01-a
6
CONTINUOUS
62
  7
100
AcDbVertex
100
AcDb2dVertex
10
2926.389763270083
20
1835.147379243225
30
0.0
0
SEQEND
5
735
100
AcDbEntity
8
0-01-a
0
LINE
5
736
100
AcDbEntity
8
0-01-a
6
CONTINUOUS
62
7
100
AcDbLine
10
3077.171488903829
20
1835.147379243225
30
0.0
11
2926.389763270083
21
1835.147379243225
31
0.0
0
LINE
5
737
100
AcDbEntity
8
0-01-a
6
CONTINUOUS
62
7
100
AcDbLine
10
2995.108013464814
20
1984.565749270725
30
0.0
11
3099.628776952646
21
1984.565749270725
31
0.0
0
ELLIPSE
  5
738
100
AcDbEntity
8
0-01-a
6
CONTINUOUS
62
7
100
AcDbEllipse
10
3087.452374887268
20
2000.016517196471
30
0.0
11
33.213998332614
21
0.000000000000
31
0.0
210
0.0
220
0.0
230
1.0
40
0.500000000000
41
5.087745795016
42
6.283185307180
0
LINE
5
739
100
AcDbEntity
8
0-01-a
6
CONTINUOUS
62
7
100
AcDbLine
10
3099.628776952646
20
1862.673558693225
30
0.0
11
3081.821560069814
21
1862.673558693225
31
0.0
0
LINE
5
73a
100
AcDbEntity
8
0-01-a
6
CONTINUOUS
62
2
100
AcDbLine
10
3118.952681143313
20
1872.858863889679
30
0.0
11
3118.952681143313
21
1835.147379243225
31
0.0
0
ELLIPSE
  5
73b
100
AcDbEntity
8
0-01-a
6
CONTINUOUS
62
7
100
AcDbEllipse
10
3087.452374887268
20
1878.124326618971
30
0.0
11
33.213998332614
21
0.000000000000
31
0.0
210
0.0
220
0.0
230
1.0
40
0.500000000000
41
5.087745795016
42
5.960554352210
0
LINE
5
73c
100
AcDbEntity
8
0-01-a
6
CONTINUOUS
62
2
100
AcDbLine
10
3120.666373219882
20
1878.124326618971
30
0.0
11
3120.666373219882
21
2000.016517196471
31
0.0
0
ELLIPSE
  5
73d
100
AcDbEntity
8
0-01-a
6
CONTINUOUS
62
2
100
AcDbEllipse
10
3087.452374887268
20
1878.124326618971
30
0.0
11
33.213998332614
21
0.000000000000
31
0.0
210
0.0
220
0.0
230
1.0
40
0.500000000000
41
5.960554352210
42
6.283185307180
0
ELLIPSE
  5
73e
100
AcDbEntity
8
0-01-a
6
CONTINUOUS
62
7
100
AcDbEllipse
10
3097.652156572882
20
1998.400728800966
30
0.0
11
17.481051754007
21
0.000000000000
31
0.0
210
0.0
220
0.0
230
1.0
40
0.500000000000
41
3.171222579827
42
6.283185307180
0
ELLIPSE
  5
73f
100
AcDbEntity
8
0-01-a
6
CONTINUOUS
62
7
100
AcDbEllipse
10
3097.652156572882
20
2009.546042444495
30
0.0
11
28.202763496465
21
0.000000000000
31
0.0
210
0.0
220
0.0
230
1.0
40
0.500000000000
41
3.141592653590
42
6.283185307180
0
LINE
5
740
100
AcDbEntity
8
0-01-a
6
CONTINUOUS
62
7
100
AcDbLine
10
3112.973487057980
20
2002.509200003570
30
0.0
11
3112.973487057980
21
2028.645063508553
31
0.0
0
LINE
5
741
100
AcDbEntity
8
0-01-a
6
CONTINUOUS
62
7
100
AcDbLine
10
3112.973487057980
20
2002.509200004327
30
0.0
11
3110.875171906355
21
2004.200188988154
31
0.0
0
LINE
5
742
100
AcDbEntity
8
0-01-a
6
CONTINUOUS
62
7
100
AcDbLine
10
3115.360733023205
20
2003.373256517424
30
0.0
11
3115.360733023205
21
2029.629981887791
31
0.0
0
LINE
5
743
100
AcDbEntity
8
0-01-a
6
CONTINUOUS
62
7
100
AcDbLine
10
3112.973487057980
20
2028.645063508553
30
0.0
11
3115.360733023205
21
2029.629981887791
31
0.0
0
ELLIPSE
  5
744
100
AcDbEntity
8
0-01-a
6
CONTINUOUS
62
7
100
AcDbEllipse
10
3097.652156572882
20
2015.183173819333
30
0.0
11
25.638875905877
21
0.000000000000
31
0.0
210
0.0
220
0.0
230
1.0
40
0.500000000000
41
5.474835060090
42
6.283185307180
0
LINE
5
745
100
AcDbEntity
8
0-01-a
6
CONTINUOUS
62
7
100
AcDbLine
10
3108.776856754730
20
2030.821074632318
30
0.0
11
3112.973487057980
21
2028.645063508553
31
0.0
0
LINE
5
746
100
AcDbEntity
8
0-01-a
6
CONTINUOUS
62
7
100
AcDbLine
10
3115.360733023205
20
2029.629981887791
30
0.0
11
3112.321337268192
21
2032.023151396498
31
0.0
0
LINE
5
747
100
AcDbEntity
8
0-01-a
6
CONTINUOUS
62
7
100
AcDbLine
10
3082.330826087784
20
2002.509200003570
30
0.0
11
3082.330826087784
21
2028.645063508553
31
0.0
0
LINE
5
748
100
AcDbEntity
8
0-01-a
6
CONTINUOUS
62
7
100
AcDbLine
10
3082.330826087784
20
2002.509200004327
30
0.0
11
3084.429141239409
21
2004.200188988154
31
0.0
0
LINE
5
749
100
AcDbEntity
8
0-01-a
6
CONTINUOUS
62
7
100
AcDbLine
10
3079.943580122559
20
2003.373256517424
30
0.0
11
3079.943580122559
21
2029.629981887791
31
0.0
0
LINE
5
74a
100
AcDbEntity
8
0-01-a
6
CONTINUOUS
62
7
100
AcDbLine
10
3082.330826087784
20
2028.645063508553
30
0.0
11
3079.943580122559
21
2029.629981887791
31
0.0
0
ELLIPSE
  5
74b
100
AcDbEntity
8
0-01-a
6
CONTINUOUS
62
7
100
AcDbEllipse
10
3097.652156572882
20
2015.183173819333
30
0.0
11
-25.638875905877
21
0.000000000000
31
0.0
210
0.0
220
0.0
230
1.0
40
0.500000000000
41
6.283185307180
42
7.091535554269
0
LINE
5
74c
100
AcDbEntity
8
0-01-a
6
CONTINUOUS
62
7
100
AcDbLine
10
3086.527456391033
20
2030.821074632318
30
0.0
11
3082.330826087784
21
2028.645063508553
31
0.0
0
LINE
5
74d
100
AcDbEntity
8
0-01-a
6
CONTINUOUS
62
7
100
AcDbLine
10
3079.943580122559
20
2029.629981887791
30
0.0
11
3082.982975877572
21
2032.023151396498
31
0.0
0
ELLIPSE
  5
74e
100
AcDbEntity
8
0-01-a
6
CONTINUOUS
62
7
100
AcDbEllipse
10
3097.652156572882
20
2040.929191811283
30
0.0
11
23.074988315289
21
0.000000000000
31
0.0
210
0.0
220
0.0
230
1.0
40
0.500000000000
41
4.209326619107
42
5.215451341662
0
ELLIPSE
  5
74f
100
AcDbEntity
8
0-01-a
6
CONTINUOUS
62
7
100
AcDbEllipse
10
3097.652156572882
20
2015.183173819333
30
0.0
11
25.638875905877
21
0.000000000000
31
0.0
210
0.0
220
0.0
230
1.0
40
0.500000000000
41
4.170516843768
42
5.254261117001
0
ELLIPSE
  5
750
100
AcDbEntity
8
0-01-a
6
CONTINUOUS
62
7
100
AcDbEllipse
10
3097.652156572882
20
2014.348252974606
30
0.0
11
28.202763496465
21
0.000000000000
31
0.0
210
0.0
220
0.0
230
1.0
40
0.500000000000
41
4.138078103789
42
5.286699856980
0
ELLIPSE
  5
751
100
AcDbEntity
8
0-01-a
6
CONTINUOUS
62
7
100
AcDbEllipse
10
3097.652156572882
20
2014.348252974606
30
0.0
11
-28.202763496465
21
0.000000000000
31
0.0
210
0.0
220
0.0
230
1.0
40
0.500000000000
41
6.282855838166
42
7.175126787469
0
ELLIPSE
  5
752
100
AcDbEntity
8
0-01-a
6
CONTINUOUS
62
7
100
AcDbEllipse
10
3097.652156572882
20
2014.348252974606
30
0.0
11
28.202763496465
21
0.000000000000
31
0.0
210
0.0
220
0.0
230
1.0
40
0.500000000000
41
5.391243826890
42
6.283185307180
0
LINE
5
753
100
AcDbEntity
8
0-01-a
6
CONTINUOUS
62
2
100
AcDbLine
10
3009.909384473727
20
2009.749425151725
30
0.0
11
3069.449393076417
21
2009.749425151725
31
0.0
0
LINE
5
754
100
AcDbEntity
8
0-01-a
6
CONTINUOUS
62
7
100
AcDbLine
10
3069.449393076417
20
2009.546042444495
30
0.0
11
3069.449393076417
21
2009.749425151725
31
0.0
0
ELLIPSE
  5
755
100
AcDbEntity
8
0-01-a
6
CONTINUOUS
62
2
100
AcDbEllipse
10
3087.452374887268
20
2000.016517196471
30
0.0
11
33.213998332614
21
0.000000000000
31
0.0
210
0.0
220
0.0
230
1.0
40
0.500000000000
41
0.000000000000
42
0.078755609496
0
LINE
5
756
100
AcDbEntity
8
0-01-a
6
CONTINUOUS
62
7
100
AcDbLine
10
3120.666373219882
20
2001.395249523520
30
0.0
11
3172.779288879435
21
2001.395249523520
31
0.0
0
LINE
5
757
100
AcDbEntity
8
0-01-a
6
CONTINUOUS
62
7
100
AcDbLine
10
3120.666373219882
20
2040.563380332442
30
0.0
11
3172.779288879435
21
2040.563380332442
31
0.0
0
ELLIPSE
  5
758
100
AcDbEntity
8
0-01-a
6
CONTINUOUS
62
7
100
AcDbEllipse
10
3097.652156572882
20
2040.929191811283
30
0.0
11
15.575617112820
21
0.000000000000
31
0.0
210
0.0
220
0.0
230
1.0
40
0.500000000000
41
0.000000000000
42
6.283185307180
0
ELLIPSE
  5
759
100
AcDbEntity
8
0-01-a
6
CONTINUOUS
62
7
100
AcDbEllipse
10
3097.652156572882
20
2037.521015053262
30
0.0
11
15.575617112820
21
0.000000000000
31
0.0
210
0.0
220
0.0
230
1.0
40
0.500000000000
41
0.220599749681
42
2.920992903909
0
ELLIPSE
  5
75a
100
AcDbEntity
8
0-01-a
6
CONTINUOUS
62
7
100
AcDbEllipse
10
3097.652156572882
20
2035.981795975938
30
0.0
11
11.681712834615
21
0.000000000000
31
0.0
210
0.0
220
0.0
230
1.0
40
0.500000000000
41
6.247574936352
42
9.460388331597
0
ELLIPSE
  5
75b
100
AcDbEntity
8
0-01-a
6
CONTINUOUS
62
2
100
AcDbEllipse
10
3097.652156572882
20
2040.929191811283
30
0.0
11
23.074988315289
21
0.000000000000
31
0.0
210
0.0
220
0.0
230
1.0
40
0.500000000000
41
1.067733965517
42
2.073858688073
0
LINE
5
75c
100
AcDbEntity
8
0-01-a
6
CONTINUOUS
62
2
100
AcDbLine
10
3112.973487057980
20
2053.213320114013
30
0.0
11
3115.360733023205
21
2052.228401734775
31
0.0
0
LINE
5
75d
100
AcDbEntity
8
0-01-a
6
CONTINUOUS
62
2
100
AcDbLine
10
3108.776856754730
20
2051.037308990247
30
0.0
11
3112.973487057980
21
2053.213320114013
31
0.0
0
POLYLINE
5
75e
100
AcDbEntity
8
0-01-a
6
CONTINUOUS
62
  2
100
AcDb2dPolyline
66
1
10
0.0
20
0.0
30
0.0
70
0
0
VERTEX
5
75f
100
AcDbEntity
8
0-01-a
6
CONTINUOUS
62
  2
100
AcDbVertex
100
AcDb2dVertex
10
3086.527456391033
20
2051.037308990247
30
0.0
0
VERTEX
5
760
100
AcDbEntity
8
0-01-a
6
CONTINUOUS
62
  2
100
AcDbVertex
100
AcDb2dVertex
10
3082.330826087784
20
2053.213320114013
30
0.0
0
VERTEX
5
761
100
AcDbEntity
8
0-01-a
6
CONTINUOUS
62
  2
100
AcDbVertex
100
AcDb2dVertex
10
3079.943580122559
20
2052.228401734775
30
0.0
0
SEQEND
5
762
100
AcDbEntity
8
0-01-a
0
LINE
5
763
100
AcDbEntity
8
0-01-a
6
CONTINUOUS
62
2
100
AcDbLine
10
3115.360733023205
20
2048.326174403087
30
0.0
11
3115.360733023205
21
2052.228401734775
31
0.0
0
LINE
5
764
100
AcDbEntity
8
0-01-a
6
CONTINUOUS
62
2
100
AcDbLine
10
3079.943580122559
20
2048.326174403087
30
0.0
11
3079.943580122559
21
2052.228401734775
31
0.0
0
ELLIPSE
  5
765
100
AcDbEntity
8
0-01-a
6
CONTINUOUS
62
2
100
AcDbEllipse
10
3097.652156572882
20
2040.929191811283
30
0.0
11
23.074988315289
21
0.000000000000
31
0.0
210
0.0
220
0.0
230
1.0
40
0.500000000000
41
1.067733965517
42
2.073858688073
0
ELLIPSE
  5
766
100
AcDbEntity
8
0-01-a
6
CONTINUOUS
62
7
100
AcDbEllipse
10
3097.652156572882
20
2040.929191811283
30
0.0
11
-23.074988315289
21
0.000000000000
31
0.0
210
0.0
220
0.0
230
1.0
40
0.500000000000
41
0.170163726460
42
0.881858281432
0
POLYLINE
5
767
100
AcDbEntity
8
0-01-a
6
CONTINUOUS
62
  2
100
AcDb2dPolyline
66
1
10
0.0
20
0.0
30
0.0
70
0
0
VERTEX
5
768
100
AcDbEntity
8
0-01-a
6
CONTINUOUS
62
  2
100
AcDbVertex
100
AcDb2dVertex
10
3069.449393076417
20
2009.749425151725
30
0.0
0
VERTEX
5
769
100
AcDbEntity
8
0-01-a
6
CONTINUOUS
62
  2
100
AcDbVertex
100
AcDb2dVertex
10
3069.449393076417
20
2041.958372368621
30
0.0
0
VERTEX
5
76a
100
AcDbEntity
8
0-01-a
6
CONTINUOUS
62
  2
100
AcDbVertex
100
AcDb2dVertex
10
3074.910439066105
20
2042.882993911849
30
0.0
0
SEQEND
5
76b
100
AcDbEntity
8
0-01-a
0
LINE
5
76c
100
AcDbEntity
8
0-01-a
6
CONTINUOUS
62
7
100
AcDbLine
10
3069.449393076417
20
2014.348252974606
30
0.0
11
3072.013280667005
21
2015.183173819333
31
0.0
0
LINE
5
76d
100
AcDbEntity
8
0-01-a
6
CONTINUOUS
62
7
100
AcDbLine
10
3069.449393076417
20
2039.900011253944
30
0.0
11
3074.577168257592
21
2039.031816514274
31
0.0
0
LINE
5
76e
100
AcDbEntity
8
0-01-a
6
CONTINUOUS
62
7
100
AcDbLine
10
3125.854920069347
20
2009.546042444495
30
0.0
11
3125.854920069347
21
2009.749425151725
31
0.0
0
LINE
5
76f
100
AcDbEntity
8
0-01-a
6
CONTINUOUS
62
2
100
AcDbLine
10
3125.854920069347
20
2009.749425151725
30
0.0
11
3125.854920069347
21
2041.958372368621
31
0.0
0
LINE
5
770
100
AcDbEntity
8
0-01-a
6
CONTINUOUS
62
7
100
AcDbLine
10
3125.854920069347
20
2014.348252974606
30
0.0
11
3123.291032478759
21
2015.183173819333
31
0.0
0
LINE
5
771
100
AcDbEntity
8
0-01-a
6
CONTINUOUS
62
2
100
AcDbLine
10
3125.854920069347
20
2041.958372368621
30
0.0
11
3120.393874079658
21
2042.882993911849
31
0.0
0
ELLIPSE
  5
772
100
AcDbEntity
8
0-01-a
6
CONTINUOUS
62
7
100
AcDbEllipse
10
3097.652156572882
20
2040.929191811283
30
0.0
11
23.074988315289
21
0.000000000000
31
0.0
210
0.0
220
0.0
230
1.0
40
0.500000000000
41
5.401327025748
42
6.113021580720
0
LINE
5
773
100
AcDbEntity
8
0-01-a
6
CONTINUOUS
62
7
100
AcDbLine
10
3125.854920069347
20
2039.900011253944
30
0.0
11
3120.727144888171
21
2039.031816514274
31
0.0
0
ELLIPSE
  5
774
100
AcDbEntity
8
0-01-a
6
CONTINUOUS
62
2
100
AcDbEllipse
10
3097.652156572882
20
2040.929191811283
30
0.0
11
23.074988315289
21
0.000000000000
31
0.0
210
0.0
220
0.0
230
1.0
40
0.500000000000
41
2.445628613523
42
2.971428927130
0
ELLIPSE
  5
775
100
AcDbEntity
8
0-01-a
6
CONTINUOUS
62
2
100
AcDbEllipse
10
3097.652156572882
20
2040.929191811283
30
0.0
11
23.074988315289
21
0.000000000000
31
0.0
210
0.0
220
0.0
230
1.0
40
0.500000000000
41
0.170163726460
42
0.695964040067
0
LINE
5
776
100
AcDbEntity
8
0-01-a
6
CONTINUOUS
62
7
100
AcDbLine
10
3115.360733023205
20
2052.228401734775
30
0.0
11
3112.321337268192
21
2049.835232226067
31
0.0
0
ELLIPSE
  5
777
100
AcDbEntity
8
0-01-a
6
CONTINUOUS
62
7
100
AcDbEllipse
10
3097.652156572882
20
2040.929191811283
30
0.0
11
23.074988315289
21
0.000000000000
31
0.0
210
0.0
220
0.0
230
1.0
40
0.500000000000
41
0.695964040067
42
0.881858281432
0
LINE
5
778
100
AcDbEntity
8
0-01-a
6
CONTINUOUS
62
7
100
AcDbLine
10
3079.943580122559
20
2052.228401734775
30
0.0
11
3082.982975877572
21
2049.835232226067
31
0.0
0
ELLIPSE
  5
779
100
AcDbEntity
8
0-01-a
6
CONTINUOUS
62
7
100
AcDbEllipse
10
3097.652156572882
20
2040.929191811283
30
0.0
11
23.074988315289
21
0.000000000000
31
0.0
210
0.0
220
0.0
230
1.0
40
0.500000000000
41
2.259734372158
42
2.445628613523
0
ELLIPSE
  5
77a
100
AcDbEntity
8
0-01-a
6
CONTINUOUS
62
7
100
AcDbEllipse
10
3097.652156572882
20
2033.784747122013
30
0.0
11
23.074988315289
21
0.000000000000
31
0.0
210
0.0
220
0.0
230
1.0
40
0.500000000000
41
5.587221267112
42
6.283185307180
0
ELLIPSE
  5
77b
100
AcDbEntity
8
0-01-a
6
CONTINUOUS
62
7
100
AcDbEllipse
10
3097.652156572882
20
2033.784747122013
30
0.0
11
-23.074988315289
21
0.000000000000
31
0.0
210
0.0
220
0.0
230
1.0
40
0.500000000000
41
0.000000000000
42
0.695964040067
0
LINE
5
77c
100
AcDbEntity
8
0-01-a
6
CONTINUOUS
62
7
100
AcDbLine
10
3120.727144888171
20
2033.784747122013
30
0.0
11
3120.727144888171
21
2039.031816514274
31
0.0
0
LINE
5
77d
100
AcDbEntity
8
0-01-a
6
CONTINUOUS
62
7
100
AcDbLine
10
3123.291032478759
20
2033.334363099517
30
0.0
11
3120.727144888171
21
2033.784747122013
31
0.0
0
ELLIPSE
  5
77e
100
AcDbEntity
8
0-01-a
6
CONTINUOUS
62
7
100
AcDbEllipse
10
3097.652156572882
20
2033.334363099517
30
0.0
11
25.638875905877
21
0.000000000000
31
0.0
210
0.0
220
0.0
230
1.0
40
0.500000000000
41
5.474835060090
42
6.283185307180
0
LINE
5
77f
100
AcDbEntity
8
0-01-a
6
CONTINUOUS
62
7
100
AcDbLine
10
3123.291032478759
20
2033.334363099517
30
0.0
11
3123.291032478759
21
2015.183173819333
31
0.0
0
LINE
5
780
100
AcDbEntity
8
0-01-a
6
CONTINUOUS
62
7
100
AcDbLine
10
3108.776856754730
20
2023.676629943048
30
0.0
11
3108.776856754730
21
2030.821074632318
31
0.0
0
LINE
5
781
100
AcDbEntity
8
0-01-a
6
CONTINUOUS
62
7
100
AcDbLine
10
3110.875171906355
20
2022.351378268337
30
0.0
11
3108.776856754730
21
2023.676629943048
31
0.0
0
ELLIPSE
  5
782
100
AcDbEntity
8
0-01-a
6
CONTINUOUS
62
7
100
AcDbEllipse
10
3097.652156572882
20
2033.334363099517
30
0.0
11
25.638875905877
21
0.000000000000
31
0.0
210
0.0
220
0.0
230
1.0
40
0.500000000000
41
4.170516843768
42
5.254261117001
0
LINE
5
783
100
AcDbEntity
8
0-01-a
6
CONTINUOUS
62
7
100
AcDbLine
10
3110.875171906355
20
2004.200188988154
30
0.0
11
3110.875171906355
21
2022.351378268337
31
0.0
0
ELLIPSE
  5
784
100
AcDbEntity
8
0-01-a
6
CONTINUOUS
62
7
100
AcDbEllipse
10
3097.652156572882
20
2033.784747122013
30
0.0
11
23.074988315289
21
0.000000000000
31
0.0
210
0.0
220
0.0
230
1.0
40
0.500000000000
41
4.209326619107
42
5.215451341662
0
LINE
5
785
100
AcDbEntity
8
0-01-a
6
CONTINUOUS
62
7
100
AcDbLine
10
3086.527456391033
20
2023.676629943048
30
0.0
11
3086.527456391033
21
2030.821074632318
31
0.0
0
LINE
5
786
100
AcDbEntity
8
0-01-a
6
CONTINUOUS
62
7
100
AcDbLine
10
3084.429141239409
20
2022.351378268337
30
0.0
11
3086.527456391033
21
2023.676629943048
31
0.0
0
LINE
5
787
100
AcDbEntity
8
0-01-a
6
CONTINUOUS
62
7
100
AcDbLine
10
3084.429141239409
20
2004.200188988154
30
0.0
11
3084.429141239409
21
2022.351378268337
31
0.0
0
POLYLINE
5
788
100
AcDbEntity
8
0-01-a
6
CONTINUOUS
62
  7
100
AcDb2dPolyline
66
1
10
0.0
20
0.0
30
0.0
70
0
0
VERTEX
5
789
100
AcDbEntity
8
0-01-a
6
CONTINUOUS
62
  7
100
AcDbVertex
100
AcDb2dVertex
10
3072.013280667005
20
2033.334363099517
30
0.0
0
VERTEX
5
78a
100
AcDbEntity
8
0-01-a
6
CONTINUOUS
62
  7
100
AcDbVertex
100
AcDb2dVertex
10
3074.577168257592
20
2033.784747122013
30
0.0
0
VERTEX
5
78b
100
AcDbEntity
8
0-01-a
6
CONTINUOUS
62
  7
100
AcDbVertex
100
AcDb2dVertex
10
3074.577168257592
20
2039.031816514274
30
0.0
0
SEQEND
5
78c
100
AcDbEntity
8
0-01-a
0
ELLIPSE
  5
78d
100
AcDbEntity
8
0-01-a
6
CONTINUOUS
62
7
100
AcDbEllipse
10
3097.652156572882
20
2033.334363099517
30
0.0
11
-25.638875905877
21
0.000000000000
31
0.0
210
0.0
220
0.0
230
1.0
40
0.500000000000
41
6.283185307180
42
7.091535554269
0
LINE
5
78e
100
AcDbEntity
8
0-01-a
6
CONTINUOUS
62
7
100
AcDbLine
10
3072.013280667005
20
2033.334363099517
30
0.0
11
3072.013280667005
21
2015.183173819333
31
0.0
0
MTEXT
5
78f
100
AcDbEntity
8
0-01-a
62
7
100
AcDbMText
10
2150.997
20
1955.986
30
0.0
40
25.432
41
0.000
71
5
72
1
1
\W1.093;{\W0.787;L}＝{\W0.787;1.65m}
7
STANDARD
11
1.00000
21
0.00000
31
0.0
0
TEXT
5
790
100
AcDbEntity
8
0-01-a
62
7
100
AcDbText
10
3184.967
20
2010.544
30
0.0
40
26.928
41
0.637
50
0.000
1
30
72
1
11
3201.687
21
2023.632
31
0.0
100
AcDbText
73
2
0
TEXT
5
791
100
AcDbEntity
8
0-01-a
62
7
100
AcDbText
10
2867.120
20
1900.001
30
0.0
40
26.928
41
0.781
50
0.000
1
115
72
1
11
2892.840
21
1913.089
31
0.0
100
AcDbText
73
2
0
LINE
5
792
100
AcDbEntity
8
0-01-a
6
CONTINUOUS
62
7
100
AcDbLine
10
3172.779288879435
20
2040.563380332442
30
0.0
11
3172.779288879435
21
2001.395249523520
31
0.0
0
POLYLINE
5
793
100
AcDbEntity
  8
0-01-a
6
CONTINUOUS
62
7
100
AcDb2dPolyline
66
1
10
0
20
0
70
1
40
3.200
41
3.200
0
VERTEX
5
794
100
AcDbEntity
  8
0-01-a
6
CONTINUOUS
62
7
100
AcDbVertex
100
AcDb2dVertex
10
3171.179
20
2040.563
30
0.0
42
1.000
0
VERTEX
5
795
100
AcDbEntity
  8
0-01-a
6
CONTINUOUS
62
7
100
AcDbVertex
100
AcDb2dVertex
10
3174.379
20
2040.563
30
0.0
42
1.000
0
SEQEND
5
796
100
AcDbEntity
  8
0-01-a
0
POLYLINE
5
797
100
AcDbEntity
  8
0-01-a
6
CONTINUOUS
62
7
100
AcDb2dPolyline
66
1
10
0
20
0
70
1
40
3.200
41
3.200
0
VERTEX
5
798
100
AcDbEntity
  8
0-01-a
6
CONTINUOUS
62
7
100
AcDbVertex
100
AcDb2dVertex
10
3171.179
20
2001.395
30
0.0
42
1.000
0
VERTEX
5
799
100
AcDbEntity
  8
0-01-a
6
CONTINUOUS
62
7
100
AcDbVertex
100
AcDb2dVertex
10
3174.379
20
2001.395
30
0.0
42
1.000
0
SEQEND
5
79a
100
AcDbEntity
  8
0-01-a
0
POLYLINE
5
79b
100
AcDbEntity
  8
0-01-a
6
CONTINUOUS
62
7
100
AcDb2dPolyline
66
1
10
0
20
0
70
1
40
3.200
41
3.200
0
VERTEX
5
79c
100
AcDbEntity
  8
0-01-a
6
CONTINUOUS
62
7
100
AcDbVertex
100
AcDb2dVertex
10
2924.790
20
1984.566
30
0.0
42
1.000
0
VERTEX
5
79d
100
AcDbEntity
  8
0-01-a
6
CONTINUOUS
62
7
100
AcDbVertex
100
AcDb2dVertex
10
2927.990
20
1984.566
30
0.0
42
1.000
0
SEQEND
5
79e
100
AcDbEntity
  8
0-01-a
0
POLYLINE
5
79f
100
AcDbEntity
  8
0-01-a
6
CONTINUOUS
62
7
100
AcDb2dPolyline
66
1
10
0
20
0
70
1
40
3.200
41
3.200
0
VERTEX
5
7a0
100
AcDbEntity
  8
0-01-a
6
CONTINUOUS
62
7
100
AcDbVertex
100
AcDb2dVertex
10
2924.790
20
1835.147
30
0.0
42
1.000
0
VERTEX
5
7a1
100
AcDbEntity
  8
0-01-a
6
CONTINUOUS
62
7
100
AcDbVertex
100
AcDb2dVertex
10
2927.990
20
1835.147
30
0.0
42
1.000
0
SEQEND
5
7a2
100
AcDbEntity
  8
0-01-a
0
LINE
5
7a3
100
AcDbEntity
8
0-01-a
6
CONTINUOUS
62
7
100
AcDbLine
10
3120.666373219882
20
2040.563380332442
30
0.0
11
3120.666373219882
21
2070.997112510536
31
0.0
0
TEXT
5
7a4
100
AcDbEntity
8
0-01-a
62
7
100
AcDbText
10
3048.104
20
2083.865
30
0.0
40
26.928
41
0.586
50
0.000
1
75
72
1
11
3064.824
21
2096.953
31
0.0
100
AcDbText
73
2
0
TEXT
5
7a5
100
AcDbEntity
8
0-01-a
62
7
100
AcDbText
10
2946.334
20
2057.545
30
0.0
40
26.928
41
0.657
50
0.000
1
40
72
1
11
2963.054
21
2070.633
31
0.0
100
AcDbText
73
2
0
LINE
5
7a6
100
AcDbEntity
8
0-01-a
6
CONTINUOUS
62
7
100
AcDbLine
10
2988.318802707220
20
1980.681017719026
30
0.0
11
2988.318802707220
21
2045.813436629536
31
0.0
0
LINE
5
7a7
100
AcDbEntity
8
0-01-a
6
CONTINUOUS
62
7
100
AcDbLine
10
3003.120173716133
20
2070.997112510536
30
0.0
11
2988.318802707220
21
2045.813436629536
31
0.0
0
LINE
5
7a8
100
AcDbEntity
8
0-01-a
6
CONTINUOUS
62
7
100
AcDbLine
10
3003.120173716133
20
2005.864693600026
30
0.0
11
3003.120173716133
21
2070.997112510536
31
0.0
0
LINE
5
7a9
100
AcDbEntity
8
0-01-a
6
CONTINUOUS
62
7
100
AcDbLine
10
3120.666373219882
20
2070.997112510536
30
0.0
11
3003.120173716133
21
2070.997112510536
31
0.0
0
POLYLINE
5
7aa
100
AcDbEntity
  8
0-01-a
6
CONTINUOUS
62
7
100
AcDb2dPolyline
66
1
10
0
20
0
70
1
40
3.200
41
3.200
0
VERTEX
5
7ab
100
AcDbEntity
  8
0-01-a
6
CONTINUOUS
62
7
100
AcDbVertex
100
AcDb2dVertex
10
3001.520
20
2070.997
30
0.0
42
1.000
0
VERTEX
5
7ac
100
AcDbEntity
  8
0-01-a
6
CONTINUOUS
62
7
100
AcDbVertex
100
AcDb2dVertex
10
3004.720
20
2070.997
30
0.0
42
1.000
0
SEQEND
5
7ad
100
AcDbEntity
  8
0-01-a
0
POLYLINE
5
7ae
100
AcDbEntity
  8
0-01-a
6
CONTINUOUS
62
7
100
AcDb2dPolyline
66
1
10
0
20
0
70
1
40
3.200
41
3.200
0
VERTEX
5
7af
100
AcDbEntity
  8
0-01-a
6
CONTINUOUS
62
7
100
AcDbVertex
100
AcDb2dVertex
10
2986.719
20
2045.813
30
0.0
42
1.000
0
VERTEX
5
7b0
100
AcDbEntity
  8
0-01-a
6
CONTINUOUS
62
7
100
AcDbVertex
100
AcDb2dVertex
10
2989.919
20
2045.813
30
0.0
42
1.000
0
SEQEND
5
7b1
100
AcDbEntity
  8
0-01-a
0
POLYLINE
5
7b2
100
AcDbEntity
  8
0-01-a
6
CONTINUOUS
62
7
100
AcDb2dPolyline
66
1
10
0
20
0
70
1
40
3.200
41
3.200
0
VERTEX
5
7b3
100
AcDbEntity
  8
0-01-a
6
CONTINUOUS
62
7
100
AcDbVertex
100
AcDb2dVertex
10
3119.066
20
2070.997
30
0.0
42
1.000
0
VERTEX
5
7b4
100
AcDbEntity
  8
0-01-a
6
CONTINUOUS
62
7
100
AcDbVertex
100
AcDb2dVertex
10
3122.266
20
2070.997
30
0.0
42
1.000
0
SEQEND
5
7b5
100
AcDbEntity
  8
0-01-a
0
LINE
5
7b6
100
AcDbEntity
8
0-01-a
6
CONTINUOUS
62
2
100
AcDbLine
10
2813.555469100351
20
2060.204868631577
30
0.0
11
2518.164368582018
21
2060.204868631577
31
0.0
0
POLYLINE
5
7b7
100
AcDbEntity
8
0-01-a
6
CONTINUOUS
62
  2
100
AcDb2dPolyline
66
1
10
0.0
20
0.0
30
0.0
70
0
0
VERTEX
5
7b8
100
AcDbEntity
8
0-01-a
6
CONTINUOUS
62
  2
100
AcDbVertex
100
AcDb2dVertex
10
2813.555469100351
20
2060.204868631577
30
0.0
0
VERTEX
5
7b9
100
AcDbEntity
8
0-01-a
6
CONTINUOUS
62
  2
100
AcDbVertex
100
AcDb2dVertex
10
2813.555469100351
20
1929.404381317186
30
0.0
0
VERTEX
5
7ba
100
AcDbEntity
8
0-01-a
6
CONTINUOUS
62
  2
100
AcDbVertex
100
AcDb2dVertex
10
2518.164368582018
20
1929.404381317186
30
0.0
0
SEQEND
5
7bb
100
AcDbEntity
8
0-01-a
0
LINE
5
7bc
100
AcDbEntity
8
0-01-a
6
CONTINUOUS
62
2
100
AcDbLine
10
2518.164368582018
20
2060.204868631577
30
0.0
11
2518.164368582018
21
1929.404381317186
31
0.0
0
TEXT
5
7bd
100
AcDbEntity
8
0-01-a
62
3
100
AcDbText
10
2531.780
20
2004.987
30
0.0
40
40.392
41
0.999
50
0.000
1
給水電磁弁
72
1
11
2669.860
21
1997.619
31
0.0
100
AcDbText
73
1
0
TEXT
5
7be
100
AcDbEntity
8
0-01-a
62
3
100
AcDbText
10
2531.780
20
1944.647
30
0.0
40
40.392
41
0.999
50
0.000
1
　　　詳細
72
1
11
2669.860
21
1937.279
31
0.0
100
AcDbText
73
1
0
TEXT
5
7bf
100
AcDbEntity
8
F-F
62
3
100
AcDbText
10
2409.253
20
870.035
30
0.0
40
40.392
41
0.999
50
0.000
1
給水接続
72
1
11
2519.333
21
890.667
31
0.0
100
AcDbText
73
2
0
TEXT
5
7c0
100
AcDbEntity
8
F-F
62
7
100
AcDbText
10
2672.227
20
909.105
30
0.0
40
20.196
41
0.856
50
0.000
1
※通常は給水接続を行ってください。
72
0
11
2671.267
21
917.421
31
0.0
100
AcDbText
73
2
0
MTEXT
5
7c1
100
AcDbEntity
8
F-F
62
7
100
AcDbMText
10
2672.227
20
885.377
30
0.0
40
19.074
41
0.000
71
4
72
1
1
\W0.972;　給湯器と接続を行う場合は先止め式でかつ{\W0.700;60}℃まで
7
STANDARD
11
1.00000
21
0.00000
31
0.0
0
TEXT
5
7c2
100
AcDbEntity
8
F-F
62
7
100
AcDbText
10
2672.227
20
842.137
30
0.0
40
20.196
41
0.856
50
0.000
1
　のお湯調節を行ってください。
72
0
11
2671.267
21
850.453
31
0.0
100
AcDbText
73
2
0
TEXT
5
7c3
100
AcDbEntity
8
F-F
62
7
100
AcDbText
10
2672.227
20
808.653
30
0.0
40
20.196
41
0.856
50
0.000
1
　同時に食器洗い機のプログラムを温水接続に変更し
72
0
11
2671.267
21
816.969
31
0.0
100
AcDbText
73
2
0
TEXT
5
7c4
100
AcDbEntity
8
F-F
62
7
100
AcDbText
10
2672.227
20
775.169
30
0.0
40
20.196
41
0.856
50
0.000
1
　てください（詳細は取扱説明書をご覧ください）。
72
0
11
2671.267
21
783.485
31
0.0
100
AcDbText
73
2
0
MTEXT
5
7c5
100
AcDbEntity
8
F-F
62
3
100
AcDbMText
10
2861.587
20
940.177
30
0.0
40
38.148
41
0.000
71
7
72
1
1
\W1.134;{\W0.817;60}℃以下
7
STANDARD
11
1.00000
21
0.00000
31
0.0
0
LINE
5
7c6
100
AcDbEntity
8
F-F
6
CONTINUOUS
62
7
100
AcDbLine
10
2492.000000000000
20
122.666688661317
30
0.0
11
2806.000000000000
21
122.666688661317
31
0.0
0
TEXT
5
7c7
100
AcDbEntity
8
F-F
62
7
100
AcDbText
10
2728.627
20
94.351
30
0.0
40
20.196
41
0.999
50
0.000
1
製図
72
1
11
2755.667
21
104.667
31
0.0
100
AcDbText
73
2
0
TEXT
5
7c8
100
AcDbEntity
8
F-F
62
7
100
AcDbText
10
2519.293
20
94.351
30
0.0
40
20.196
41
0.999
50
0.000
1
承認
72
1
11
2546.333
21
104.667
31
0.0
100
AcDbText
73
2
0
TEXT
5
7c9
100
AcDbEntity
8
F-F
62
7
100
AcDbText
10
2623.960
20
94.351
30
0.0
40
20.196
41
0.999
50
0.000
1
照査
72
1
11
2651.000
21
104.667
31
0.0
100
AcDbText
73
2
0
LINE
5
7ca
100
AcDbEntity
8
F-F
6
CONTINUOUS
62
2
100
AcDbLine
10
2806.000000000000
20
162.666688661317
30
0.0
11
3304.000000000000
21
162.666688661317
31
0.0
0
LINE
5
7cb
100
AcDbEntity
8
F-F
6
CONTINUOUS
62
2
100
AcDbLine
10
2492.000000000000
20
222.666688661317
30
0.0
11
3304.000000000000
21
222.666688661317
31
0.0
0
LINE
5
7cc
100
AcDbEntity
8
F-F
6
CONTINUOUS
62
2
100
AcDbLine
10
2806.000000000000
20
222.666688661317
30
0.0
11
2806.000000000000
21
82.666688661317
31
0.0
0
LINE
5
7cd
100
AcDbEntity
8
F-F
6
CONTINUOUS
62
7
100
AcDbLine
10
2701.333333333333
20
222.666688661317
30
0.0
11
2701.333333333333
21
82.666688661317
31
0.0
0
LINE
5
7ce
100
AcDbEntity
8
F-F
6
CONTINUOUS
62
7
100
AcDbLine
10
2596.666666666667
20
342.666688661317
30
0.0
11
2596.666666666667
21
82.666688661317
31
0.0
0
TEXT
5
7cf
100
AcDbEntity
8
F-F
62
7
100
AcDbText
10
2505.293
20
304.351
30
0.0
40
20.196
41
0.999
50
0.000
1
製品名
72
1
11
2546.333
21
314.667
31
0.0
100
AcDbText
73
2
0
POLYLINE
5
7d0
100
AcDbEntity
8
F-F
6
CONTINUOUS
62
  2
100
AcDb2dPolyline
66
1
10
0.0
20
0.0
30
0.0
70
0
0
VERTEX
5
7d1
100
AcDbEntity
8
F-F
6
CONTINUOUS
62
  2
100
AcDbVertex
100
AcDb2dVertex
10
2492.000000000000
20
82.666688661317
30
0.0
0
VERTEX
5
7d2
100
AcDbEntity
8
F-F
6
CONTINUOUS
62
  2
100
AcDbVertex
100
AcDb2dVertex
10
2492.000000000000
20
342.666688661317
30
0.0
0
VERTEX
5
7d3
100
AcDbEntity
8
F-F
6
CONTINUOUS
62
  2
100
AcDbVertex
100
AcDb2dVertex
10
3304.000000000000
20
342.666688661317
30
0.0
0
SEQEND
5
7d4
100
AcDbEntity
8
F-F
0
LINE
5
7d5
100
AcDbEntity
8
F-F
6
CONTINUOUS
62
7
100
AcDbLine
10
2910.666666666667
20
222.666688661317
30
0.0
11
2910.666666666667
21
162.666688661317
31
0.0
0
TEXT
5
7d6
100
AcDbEntity
8
F-F
62
7
100
AcDbText
10
2819.293
20
184.351
30
0.0
40
20.196
41
0.999
50
0.000
1
作図日
72
1
11
2860.333
21
194.667
31
0.0
100
AcDbText
73
2
0
LINE
5
7d7
100
AcDbEntity
8
F-F
6
CENTER
62
7
100
AcDbLine
10
3288.421576678094
20
192.666688661317
30
0.0
11
3227.578423295240
21
192.666688661317
31
0.0
0
LINE
5
7d8
100
AcDbEntity
8
F-F
6
CENTER
62
7
100
AcDbLine
10
3241.964981730594
20
207.253060408274
30
0.0
11
3241.964981730594
21
178.080316914651
31
0.0
0
CIRCLE
5
7d9
100
AcDbEntity
8
F-F
6
CONTINUOUS
62
7
100
AcDbCircle
10
3241.964981730594
20
192.666688661317
30
0.0
40
5.195146101656
0
CIRCLE
5
7da
100
AcDbEntity
8
F-F
6
CONTINUOUS
62
7
100
AcDbCircle
10
3241.964981730594
20
192.666688661317
30
0.0
40
11.003383977929
0
TEXT
5
7db
100
AcDbEntity
8
F-F
62
7
100
AcDbText
10
3120.627
20
244.351
30
0.0
40
20.196
41
0.999
50
0.000
1
縮　尺
72
1
11
3161.667
21
254.667
31
0.0
100
AcDbText
73
2
0
LINE
5
7dc
100
AcDbEntity
8
F-F
6
CONTINUOUS
62
7
100
AcDbLine
10
3260.626347915816
20
197.861834762973
30
0.0
11
3284.603945302482
21
203.670072639246
31
0.0
0
POLYLINE
5
7dd
100
AcDbEntity
8
F-F
6
CONTINUOUS
62
  7
100
AcDb2dPolyline
66
1
10
0.0
20
0.0
30
0.0
70
0
0
VERTEX
5
7de
100
AcDbEntity
8
F-F
6
CONTINUOUS
62
  7
100
AcDbVertex
100
AcDb2dVertex
10
3260.626347915816
20
197.861834762973
30
0.0
0
VERTEX
5
7df
100
AcDbEntity
8
F-F
6
CONTINUOUS
62
  7
100
AcDbVertex
100
AcDb2dVertex
10
3260.626347915816
20
187.471542559661
30
0.0
0
VERTEX
5
7e0
100
AcDbEntity
8
F-F
6
CONTINUOUS
62
  7
100
AcDbVertex
100
AcDb2dVertex
10
3284.603945302482
20
181.663304683388
30
0.0
0
SEQEND
5
7e1
100
AcDbEntity
8
F-F
0
LINE
5
7e2
100
AcDbEntity
8
F-F
6
CONTINUOUS
62
7
100
AcDbLine
10
3284.603945302482
20
203.670072639246
30
0.0
11
3284.603945302482
21
181.663304683388
31
0.0
0
TEXT
5
7e3
100
AcDbEntity
8
F-F
62
7
100
AcDbText
10
3120.627
20
184.351
30
0.0
40
20.196
41
0.999
50
0.000
1
投影法
72
1
11
3161.667
21
194.667
31
0.0
100
AcDbText
73
2
0
LINE
5
7e4
100
AcDbEntity
8
F-F
6
CONTINUOUS
62
2
100
AcDbLine
10
3107.333333306667
20
282.666688661317
30
0.0
11
3107.333333306667
21
162.666688661317
31
0.0
0
LINE
5
7e5
100
AcDbEntity
8
F-F
6
CONTINUOUS
62
7
100
AcDbLine
10
3211.999999973334
20
282.666688661317
30
0.0
11
3211.999999973334
21
162.666688661317
31
0.0
0
LINE
5
7e6
100
AcDbEntity
8
F-F
6
CONTINUOUS
62
7
100
AcDbLine
10
2492.000000000000
20
282.666688661317
30
0.0
11
3107.333333306667
21
282.666688661317
31
0.0
0
LINE
5
7e7
100
AcDbEntity
8
F-F
6
CONTINUOUS
62
2
100
AcDbLine
10
3107.333333306667
20
282.666688661317
30
0.0
11
3304.000000000000
21
282.666688661317
31
0.0
0
TEXT
5
7e8
100
AcDbEntity
8
F-F
62
7
100
AcDbText
10
2505.293
20
244.351
30
0.0
40
20.196
1
品　番
41
0.999
50
0.000
100
AcDbText
0
MTEXT
5
7e9
100
AcDbEntity
8
F-F
62
7
100
AcDbMText
10
2952.293
20
316.107
30
0.0
40
19.074
41
0.000
71
5
72
1
1
\W1.134;ボッシュ　ビルトイン食器洗い機６０{\W0.817;cm}
7
STANDARD
11
1.00000
21
0.00000
31
0.0
0
MTEXT
5
7ea
100
AcDbEntity
8
F-F
62
7
100
AcDbMText
10
2941.960
20
182.107
30
0.0
40
19.074
41
0.000
71
7
72
1
1
\W1.134;{\W0.817;2020}年{\W0.817;12}月
7
STANDARD
11
1.00000
21
0.00000
31
0.0
0
TEXT
5
7eb
100
AcDbEntity
8
F-F
62
7
100
AcDbText
10
2888.120
20
112.965
30
0.0
40
23.562
41
0.856
50
0.000
1
株式会社　Ｇ－Ｐｌａｃｅ
72
1
11
3055.000
21
122.667
31
0.0
100
AcDbText
73
2
0
TEXT
5
7ec
100
AcDbEntity
8
F-F
62
7
100
AcDbText
10
2783.960
20
244.351
30
0.0
40
20.196
41
0.666
50
0.000
1
SMI46TS016
72
1
11
2853.000
21
254.667
31
0.0
100
AcDbText
73
2
0
TEXT
5
7ed
100
AcDbEntity
8
F-F
62
7
100
AcDbText
10
494.789
20
185.068
30
0.0
40
25.582
41
0.856
50
0.000
1
※納品時に、コントロールパネル下にフィラーが付いています。
72
0
11
493.573
21
210.801
31
0.0
100
AcDbText
73
3
0
TEXT
5
7ee
100
AcDbEntity
8
F-F
62
7
100
AcDbText
10
494.789
20
145.243
30
0.0
40
25.582
41
0.856
50
0.000
1
　フィラーは必要に応じて、お使いください。
72
0
11
493.573
21
170.976
31
0.0
100
AcDbText
73
3
0
TEXT
5
7ef
100
AcDbEntity
8
F-F
62
7
100
AcDbText
10
494.789
20
105.417
30
0.0
40
25.582
41
0.856
50
0.000
1
　フィラーの使い方は、取付設置マニュアルをご参照ください。
72
0
11
493.573
21
131.151
31
0.0
100
AcDbText
73
3
0
TEXT
5
7f0
100
AcDbEntity
8
F-F
62
7
100
AcDbText
10
3218.960
20
244.351
30
0.0
40
20.196
41
0.999
50
0.000
1
１／８
72
1
11
3260.000
21
254.667
31
0.0
100
AcDbText
73
2
0
ENDSEC
 0
SECTION
  2
OBJECTS
 0
DICTIONARY
  5
C
100
AcDbDictionary
  3
ACAD_GROUP
350
D
  3
ACAD_MLINESTYLE
350
E
 0
DICTIONARY
  5
D
100
AcDbDictionary
 0
DICTIONARY
  5
E
100
AcDbDictionary
  3
STANDARD
350
13
0
MLINESTYLE
  5
13
100
AcDbMlineStyle
  2
STANDARD
 70
    0
3

62
256
51
90.0
52
90.0
71
0
0
ENDSEC
0
EOF
